Oops, an error
Loading. Please wait.
We have an official Message In A Bottle tab made by UG professional guitarists. Check out the tab »
×
313,638 views 291 this week
22 commentsread comments
1 2 3 4 5
x 36
add to favorites
launch autoscroll
font size
0
reset
how to read this tab
guitar tuner
Autoscroll
slow
fast
+/-
esc
set tempo
stop
Tuning
E A D G B E
Message in a bottle/ The Police


[Intro]

e|---------------------------------------------------|
B|---------------------------------------------------|
G|--------8---------4-----------6--------------------|
D|-----6---------2----------4----------------6/7-----|
A|--4---------0---------2-----------------4----------|
E|-----------------------------------2---------------|

(This part sounds better with two guitars.)

Bass part

G|-------------------------------------------------|
D|-------------------------------------------------|
A|--4--4---0----2----------------------------------|
E|-------------------2-----------------------------|


[Chorus]

(Palm muted)

e|------------------------------------------------|
B|------------------------------------------------|
G|--------7-----9---------------------------------|
D|---7----7-----9---------------------------------|
A|---7----5-----7---------------------------------|
E|---5--------------------------------------------|
…I’ll send an S.O.S. to the world….

e|---------------------------------------------|
B|---------------------------------------------|
G|---------------------------------------------|
D|-----4----------7----------------------------|
A|-----4----------7----------------------------|
E|-----2----------5----------------------------|
….I hope that someone gets my……


[Interlude]

Db minor                 A major             F#m
e|-------4----------------------5-----------------2---------|
B|-------5----------------------5-----------------2---------|
G|-------6----------------------6-----------------2---------|
D|-------6----------------------7-----------------4---------|
A|-------4----------------------7-----------------4---------|
E|-------4----------------------5-----------------2---------|

……message in a bottle… yeah……….

Bass part

G|--------------------------------------------------------|
D|--------------------------------------------------------|
A|----4-4-4----4------------------------------------------|
E|--------------------5-5-5--4-----2----------------------|


************************************

| /  Slide up

************************************
Suggest correction
comments
print report bad tab
22 comments total. Showing first comments.
+7 reply
ghislain 110 Aug 16, 2003 08:00 PM

you'r wrong dude! mayor mistake on the G string. every note must be 2 frets up.

+1 reply
celticteddy 10 Mar 25, 2007 11:40 PM

this sucks

+1 reply
smitty_bang 10 May 21, 2007 02:20 AM

WRONG JEEESSS. :@ im angry at you

guest
You may want to rate the tab now too:
select rating
Wanna post a correction for this tab? Suggest correction