Oops, an error
Loading. Please wait.
We have an official Message In A Bottle tab made by UG professional guitarists. Check out the tab »
×
49,609 views 27 this week
no commentswrite comment
1 2 3 4 5
x 7
add to favorites
×
Save as Personal and add changes to this tab that will be seen only by you. Learn more ›
×
You can save this tab as Personal to edit and correct it or add notes. All changes will be seen only by you. Learn more »
launch autoscroll
font size
0
reset
guitar tuner
edit
Autoscroll
slow
fast
+/-
esc
set tempo
stop
Author
Message In A Bottle - The Police
Tabbed By : gfunkmcnasty
e-mail: halfgainer21@hotmail.com

Tuning:
[intro/verse]
G|------------------------------------------------------------------------------|
D|-------4-------4---------4-------4---------4-------4--------------------------|
A|-4-0-2---4-0-2-----4-0-2---4-0-2-----4-0-2---4-0-2----------------------------|
E|------------------------------------------------------------------------------|
play this as many times needed then play

[Chorus]
G|---------------------------------------------------|
D|---------------------------------------------------|
A|-0-0-0-0-0-0-0-5-5-5/7777-0-0-0-0-0-0-0-5-5-5/7777-|
E|---------------------------------------------------|

G|---------------------------------------------------------------|
D|4-4-4-4-4-4-4-7-0-0-0-0-0-0-7-4-4-4-4-4-4-4-7-0-0-0-0-0-0-0----|
A|---------------------------------------------------------------|
E|---------------------------------------------------------------|

  [Bridge]
G|--------------------------------|------|-----------------------------------|
D|--------------------------------|------|-----------------------------------|
A|-4-4-4-4-000----4-4-4-4-000----*|------|-----------------------------------|
E|-------------44------------4-4-*|---2-*|-----------------------------------|
Then you go back and play this over until towards the endof the song. then you play the
unttill the end of the song.

************************************

| /  Slide up

************************************

            
            
Suggest correction
Creating personal tab
Creating personal tab
You can edit any tab online and save it as your Personal.

You can edit, replace or remove any tab part or add personal notes – all changes will be seen only by you.

Personal tabs can be accessed anytime from any device, even offline.
Learn more »
comments
print report bad tab
guest
You may want to rate the tab now too:
select rating
Wanna post a correction for this tab? Suggest correction