Oops, an error
Loading. Please wait.

Next To You Tab

version 2
version 2

Whole song

Interactive

5,054 views 3 this week
no commentswrite comment
1 2 3 4 5
please rate
add to favorites
launch autoscroll
font size
0
reset
how to read this tab
guitar tuner
Autoscroll
slow
fast
+/-
esc
set tempo
stop
Help us to improve Ultimate-Guitar.com Take our survey!
×
Tabbed by:Joel!!!!!!!!!
Email:

Tuning:
the main verse just goes like this. palm mute the E's though
e|---0000000000000-----2-----------------------------------------------------|
B|---2222222222222-----3--0--------------------------------------------------|
G|---2222222222222-----2--2--------------------------------------------------|
D|------------------------2--------------------------------------------------|
A|---------------------------------------------------------------------------|
E|---------------------------------------------------------------------------|

then theres the chorus:

what can i do all i want is to be next to you
e|--4---5----7---------------------------------------------------------------|
B|--5---7----9---------------------------------------------------------------|
G|--6---7----9---------------------------------------------------------------|
D|--6---7----9---------------------------------------------------------------|
A|--4---5----7---------------------------------------------------------------|
E|---------------------------------------------------------------------------|

then at the end of the chorus it continuously goes "all i want is too be next to you"

e|---5------7------5------7--------------------------------------------------|
B|---7------9------7------9--------------------------------------------------|
G|---7------9------7------9--------------------------------------------------|
D|---7------9------7------9--------------------------------------------------|
A|---5------7------5------7--------------------------------------------------|
E|---------------------------------------------------------------------------|

then in the backround of the solo (my fave bit of the song) it goes......

e|---------------------------------------------------------------------------|
B|---------------------------------------------------------------------------|
G|---------------------------------------------------------------------------|
D|-----5--0--3-2--------5-03-2-----------5--0-3-2--------5--0-3-2------------|
A|---------------------------------------------------------------------------|
E|--3---------------3----------------3---------------3-----------------------|

e|---------------------------------------------------------------------------|
B|---------------------------------------------------------------------------|
G|---------------------------------------------------------------------------|
D|-------7--0---5-4-----7-0--5-4------7-0-5-4-----7-0-5-4--------------------|
A|---------------------------------------------------------------------------|
E|---5---------------5------------5------------5-----------------------------|

while this is happening do a solo in the key of G and then move it up to the key of A in 
with that cool riff.

thats basically the whole song Enjoy
Suggest correction
What's this?
You can suggest a correction to this tab. Community and Mods will review your correction and vote to approve or reject it.
comments
We did not receive enough feedback on this tab! Please rate:
print report bad tab
1 2 3 4 5
guest
You may want to rate the tab now too:
select rating
Please do not post tabs as comments. Select "correction" instead!