Oops, an error
Loading. Please wait.

Peanuts bass

3,057 views 6 this week
1 commentread comment
1 2 3 4 5
2 more votes to show rating
add to favorites
×
Save as Personal and add changes to this tab that will be seen only by you. Learn more ›
×
You can save this tab as Personal to edit and correct it or add notes. All changes will be seen only by you. Learn more »
launch autoscroll
font size
0
reset
guitar tuner
edit
Autoscroll
slow
fast
+/-
esc
set tempo
stop
Author
Difficulty
Peanuts
The Police
Outlandos D'Amour

I didn't see any tabs for this song, and I like it, so I attempted one.
It isn't perfect, so any problems should be promptly pointed out plz.

Intro/verse:
G|--------------------|
D|-----76666-444------|
A|--00-----------5454-|
E|--------------------|

pre-chorus:

G|--------------------|
D|----------------777-|
A|------777-55555-----|
E|--0-0---------------|

Chorus:

G|------------------|
D|------------------|
A|--5-5-------------|
E|------33-55-77-88-|

Then Intro/verse again, pre-chorus, chorus, then (for guitar solo)

G|-------------------|
D|---------------777-| X 8  
A|--777-97-55555-----| 
E|-------------------|

Then end the solo with

G|---------------|
D|---------------|
A|--5-5-5-55555/-|
E|---------------|

I'm not sure about the last riff, but the end chorus seems to change a bit...

G|---------------------|
D|-----79--------------|
A|--55-----------------|
E|--------33-55-77-88--|

            
            
Suggest correction
Creating personal tab
Creating personal tab
You can edit any tab online and save it as your Personal.

You can edit, replace or remove any tab part or add personal notes – all changes will be seen only by you.

Personal tabs can be accessed anytime from any device, even offline.
Learn more »
Give kudos to tab author, rate the tab!
1 2 3 4 5
comments
print report bad tab
1 comment total.
0 reply
Zeppman918 10 Aug 28, 2014 10:51 AM

Chorus:

G-------------------- ----------------
D---------4-------2-- --------4----------
A--5555--5------2---- or -5555--5-----3-2----
E-----------3-3------ ---------3-3---------

Solo: it can be anything and sound close as long as you stick the E and D. Here's what I play..

G----------------------
D--------6--------7-----.
A--777777-55555555------.
E----------------------

End of Solo Just ride on the low E play along to the beats accented by Copeland till this A--22222222222222---

guest
You may want to rate the tab now too:
select rating
Wanna post a correction for this tab? Suggest correction