Oops, an error
Loading. Please wait.

Roxanne Bass Tab

version 1
version 1
43,777 views 48 this week
5 commentsread comments
1 2 3 4 5
x 22
add to favorites
launch autoscroll
font size
0
reset
guitar tuner
Autoscroll
slow
fast
+/-
esc
set tempo
stop
Help us to improve Ultimate-Guitar.com Take our survey!
×
From: mike@honet7.att.com

Original music by       Sting
Performance by          The Police
Bass performance by     Sting

[Verse]
   e e q h   e e q h   e e q h   e e q h   e e q h   e e q q e e+  w+  w  
G|---------|---------|---------|---------|---------|-------------|---|---|
D|-R-5-5-R-|-R-3-3-R-|-R-1-1-R-|-R-----R-|-R-----R-|-R-----R-----|---|---|
A|---------|---------|---------|---5-5---|---3-3---|-------------|---|---|
E|---------|---------|---------|---------|---------|---1-1---1H3-|-3-|-3-|

   e e q h   e e q h   e e q h   e e q h   e e q h   e e q q e e 
G|---------|---------|---------|---------|---------|-------------|
D|-R-----R-|-R-----R-|-R-----R-|-R-----R-|-R-----R-|-R-----R-----|
A|---3-3---|---------|---------|---------|---3-3---|-------------|
E|---------|---1-1---|---3-3---|---3-3---|---------|---1-1---1-3-|

[BRIDGE INTO CHORUS]
   e e e e e e e e   e e e e q e   
G|-----------------|-------------|
D|-----------------|-------R-----|
A|-----------------|-------------|
E|-3-3-3-3-3-3-3-3-|-3-3-3---3-1-|

[CHORUS]
   e e e e e e e e e   e e e e e q e   e e e e e e e e e   e e e e e q e  
G|-------------------|---------------|-------------------|---------------|
D|-------------------|---------R-1-3-|-3-3-3-3-3-2H3-3-3-|-2H3-3-3-R-----|
A|-1-1-1-1-1-0H1-1-1-|-0H1-1-1-------|-------------------|---------------|
E|-------------------|---------------|-------------------|-----------1-3-|

   e e e e e e e e e   e e e e e q e   
G|-------------------|---------------|
D|-------------------|---------R-----|
A|-------------------|-----------3-1-|
E|--3-3-3-3-3-2H3-3-3|--2H3-3-3------|

[INTERLUDE BETWEEN VERSE 1&2]
   e e q h   e e q h   e e q h   e e q h  
G|---------|---------|---------|---------|
D|-R-----R-|-R-----R-|-R-----R-|-R-----R-|
A|---------|---------|---------|---------|
E|-------1-3--|---3-1--|---1-3--|---3-1--|

************************************

| H hammer on

************************************
Suggest correction
comments
print report bad tab
5 comments total. Showing first comments.
+1 reply
SoftParade1967 502 May 07, 2007 04:39 PM

Perfect dude. Awsome job!

+1 reply
VanzKantDanz 41 Jun 17, 2007 10:57 PM

Excellent tab.

-1 reply
mmmmporkchop 10 May 09, 2008 07:12 PM

I think the formats kind of anoyying but the notes are right as far a s i can tell

guest
You may want to rate the tab now too:
select rating
Wanna post a correction for this tab? Suggest correction