Oops, an error
Loading. Please wait.

So Lonely solo tab

version 1
version 1

Solo

Interactive

5,053 views 54 this week
1 commentread comment
1 2 3 4 5
x 4
add to favorites
×
Save as Personal and add changes to this tab that will be seen only by you. Learn more ›
×
You can save this tab as Personal to edit and correct it or add notes. All changes will be seen only by you. Learn more »
launch autoscroll
font size
0
reset
how to read this tab
guitar tuner
edit
Autoscroll
slow
fast
+/-
esc
set tempo
stop
Author
So Lonely - Fills
ARTIST: The Police
ALBUM:  Outlandos d'Amour
YEAR: 1978

tabbed by : pp1pete
Difference from other tabs
 [first 

At the end of most lines, the guitarist has a fill.
Below are the fills in order as they are played in the song, though you can mix and match them.
2 fills per line

[Verse 1]
    C major                F chord
e||-------------------------------------------0--------------------||
B||-----------------------------------------1----------------------||
G||--5-4-2-------------------------0-2-0---------------------------||
D||--------5-3-2-----------------3-------3-------------------------||
A||--------------5-2-3-------3-3-----------------------------------||
E||----------------------------------------------------------------||

     Run down        Am    C pentatonic
e||----------------------------------------------------------------||
B||------------------------------5---------------------------------||
G||--2-0--------------------5--7----5------------------------------||
D||------2-0--------------------------7-5--------------------------||
A||----------3---------------------------7-5-3---------------------||
E||----------------------------------------------------------------||

    C pentatonic              C chord
e||------------------------------0----0----0-----------------------||
B||----------------------------5----3---1-------------1------------||
G||-------------------------------------------2-0------------------||
D||--5-7-7-7-7-5----------------------------------2-0--------------||
A||--------------7-5----------------------------------3------------||
E||------------------8---------------------------------------------||

[Verse 2]
     FM7
e||----------------------------------------------------------------||
B||-1-0-------------0-1\5------------------------------------------||
G||-----2-------0-2-------------7-9-7-5--7--5----------------------||
D||---------0-3-------------------------------5--7-----------------||
A||----------------------------------------------------------------||
E||----------------------------------------------------------------||

       C chord                 Slide into Am Am     C
e||-------0----0----0----------------------------------------------||
B||-----5----3---1-------------1----------10--10----8--------------||
G||--------------------2-0----------------9---9-----9--------------||
D||------------------------2-0------------10--10----10-------------||
A||----------------------------3-----------------------------------||
E||----------------------------------------------------------------||

      CM7                     C pentatonic
e||----------------------------------------------------------------||
B||--8------0-----------------------5------------------------------||
G||----9----------------------5--7----5----------------------------||
D||------10-----------------------------7-5------------------------||
A||-----------------------------------------7-5-3------------------||
E||----------------------------------------------------------------||

************************************

| \  Slide down

************************************

            
            
Suggest correction
Creating personal tab
Creating personal tab
You can edit any tab online and save it as your Personal.

You can edit, replace or remove any tab part or add personal notes – all changes will be seen only by you.

Personal tabs can be accessed anytime from any device, even offline.
Learn more »
comments
print report bad tab
1 comment total.
0 reply
maguri [tm] 31,556 Feb 12, 2016 07:47 AM

Great and very effective lines, fine tab!

guest
You may want to rate the tab now too:
select rating
Wanna post a correction for this tab? Suggest correction