Oops, an error
Loading. Please wait.

Spirits In The Material World bass

version 2
version 2

Whole song

Interactive

1,004 views 9 this week
no commentswrite comment
1 2 3 4 5
1 last vote to show rating
add to favorites
×
Save as Personal and add changes to this tab that will be seen only by you. Learn more ›
×
You can save this tab as Personal to edit and correct it or add notes. All changes will be seen only by you. Learn more »
launch autoscroll
font size
0
reset
guitar tuner
edit
Autoscroll
slow
fast
+/-
esc
set tempo
stop
The Police
Spirits in the
  material World
A & M Records inc

Bassist: Gordon Matthew
   Thomas Sumner (AKA Sting)

Tuning : E A D G
Tempo  : 141 bpm

Drums  +++ + +

Opening riff: 00:01
G|--------------------------------|
D|--------------------------------|
A|---3--2233----------------------| X4
E|-5---------5--3-33--5--3--0--3--|


Verse: 00:15
G|--------------------------------|
D|--------------------------------|
A|---3--2233----------------------| X8
E|-5---------5--3-33--5--3--0--3--|
There is no political solution
To our troubled evolution
Have no faith in constitution
There is no bloody revolution

Chorus: 00:41
G|------------------------|
D|-----------0-2-3-5------|
A|-5--3-5-3----------3----| X4
E|------------------------|
We are spirits in the material world
(Are spirits in the material world
Are spirits in the material world
Are spirits in the material world)

Verse: 00:56
G|--------------------------------|
D|--------------------------------|
A|---3--2233----------------------| X8
E|-5---------5--3-33--5--3--0--3--|
Our so-called leaders speak
With words they try to jail you
The subjugate the meek
But it's the rhetoric of failure

Chorus: 01:22
G|------------------------|
D|-----------0-2-3-5------|
A|-5--3-5-3----------3----| X4
E|------------------------|
We are spirits in the material world
(Are spirits in the material world
Are spirits in the material world
Are spirits in the material world)

Bridge: 01:36
G|--------------------------------|
D|----2--3---5--7---5--3---2--0---|
A|-5------------------------------|
E|--------------------------------|

Instrumental: 01:43
G|--------------------------------|
D|--------------------------------|
A|---3--2233----------------------| X4
E|-5---------5--3-33--5--3--0--3--|

Verse: 01:57
G|--------------------------------|
D|--------------------------------|
A|---3--2233----------------------| X8
E|-5---------5--3-33--5--3--0--3--|
Where does the answer lie?
Living from day to day
If it's something we can't buy
There must be another way

Chorus: 02:23
G|------------------------|
D|-----------0-2-3-5------|
A|-5--3-5-3----------3----| X10 fading
E|------------------------|
We are spirits in the material world
(Are spirits in the material world)

(Are spirits in the material world...)
[repeat/fade]

End: 02:59

            
            
Suggest correction
Creating personal tab
Creating personal tab
You can edit any tab online and save it as your Personal.

You can edit, replace or remove any tab part or add personal notes – all changes will be seen only by you.

Personal tabs can be accessed anytime from any device, even offline.
Learn more »
Give kudos to tab author, rate the tab!
1 2 3 4 5
comments
print report bad tab
guest
You may want to rate the tab now too:
select rating
Wanna post a correction for this tab? Suggest correction