Oops, an error
Loading. Please wait.

She Is Beyond Good And Evil bass

34 views 6 this week
no commentswrite comment
1 2 3 4 5
3 more votes to show rating
add to favorites
×
Save as Personal and add changes to this tab that will be seen only by you. Learn more ›
×
You can save this tab as Personal to edit and correct it or add notes. All changes will be seen only by you. Learn more »
launch autoscroll
font size
0
reset
guitar tuner
edit
Autoscroll
slow
fast
+/-
esc
set tempo
stop
"She is Beyond Good and Evil" by the Pop Group, from "Y" (1979). The bass in this song is influenced by dub
and funk music, and thus very syncopated. Listen closely to the song for rhythm. Tuning is A ≈ 432Hz.

[Chorus]
G|-------------------|------7-----10-----9-----7-|------------------|------9------12-----11-----9--|
D|-------------------|---------------------------|------------------|------------------------------|
A|--0--0--0--0--0--0-|---5-----8------7-----5----|-0--0--0--0--0--0-|---7-----10------9------7-----|
E|-------------------|---------------------------|------------------|------------------------------|

G|-------------------|------7-----10-----9-----7-|------------------|------------------------------|
D|-------------------|---------------------------|------------------|------------------------------|
A|--0--0--0--0--0--0-|---5-----8------7-----5----|-0--0--0--0--0--0-|-------------//////////-------|
E|-------------------|---------------------------|------------------|---0--------------------------|

[Verse 1] 
G|-------------------|
D|-------------------|
A|-3--5-----3--5--3--|
E|-------------------|

(Vary between the following three figures. Listen to the song for the order.)

[Figure 1]
G|---------------------|
D|---------------------|
A|-----------3--5--3---|
E|--5\3----------------|

[Figure 2]
G|---------------------|
D|----5----------------|
A|-----------3--5--3---|
E|-5-------------------|

[Figure 3]
G|---------------------|
D|-5/7-----------------|
A|----------3--5--3----|
E|---------------------|

[Chorus]
G|-------------------|------7-----10-----9-----7-|------------------|------9------12-----11-----9--|
D|-------------------|---------------------------|------------------|------------------------------|
A|--0--0--0--0--0--0-|---5-----8------7-----5----|-0--0--0--0--0--0-|---7-----10------9------7-----|
E|-------------------|---------------------------|------------------|------------------------------|

G|-------------------|---------------------------|
D|-------------------|---------------------------|
A|--0--0--0--0--0--0-|---5---------//////////----|
E|-------------------|---------------------------|

[Verse 2] 
G|-------------------|
D|-------------------|
A|-3--5-----3--5--3--|
E|-------------------|

(Vary between the following three figures. Listen to the song for the order.)

[Figure 1]
G|---------------------|
D|---------------------|
A|-----------3--5--3---|
E|--5\3----------------|

[Figure 2]
G|---------------------|
D|----5----------------|
A|-----------3--5--3---|
E|-5-------------------|

[Figure 3]
G|---------------------|
D|-5/7-----------------|
A|----------3--5--3----|
E|---------------------|

[Chorus]
G|-------------------|------7-----10-----9-----7-|------------------|------9------12-----11-----9--|
D|-------------------|---------------------------|------------------|------------------------------|
A|--0--0--0--0--0--0-|---5-----8------7-----5----|-0--0--0--0--0--0-|---7-----10------9------7-----|
E|-------------------|---------------------------|------------------|------------------------------|

G|-------------------|---------------------------|
D|-------------------|---------------------------|
A|--0--0--0--0--0--0-|---5---------//////////----|
E|-------------------|---------------------------|

[Bridge]
G|------12-----14----|--------------|-----12-----14----|-----------------|
D|-----------------12|h14-----------|----------------12|h14--------------|
A|--10------12-------|--------------|-10------12-------|-----------------|
E|-------------------|----12--------|------------------|-----------------|

G|------12-----14----|--------------|-----12-----14----|-----------------|
D|-----------------12|h14-----------|----------------12|h14--------------|
A|--10------12-------|--------------|-10------12-------|-----------------|
E|-------------------|----12--------|------------------|-----------------|

G|------12-----14----|--------------|---------------8--|---------10p8----|
D|-----------------12|h14-----------|----------8h10----|--------------10-|
A|--10------12-------|--------------|--8---8-----------|-8---8-----------|
E|-------------------|----12--------|------------------|-----------------|

[Verse 3]
G|-------------------|
D|-------------------|
A|-3--5-----3--5--3--|
E|-------------------|

(Vary between the following three figures. Listen to the song for the order.)

[Figure 1]
G|---------------------|
D|---------------------|
A|-----------3--5--3---|
E|--5\3----------------|

[Figure 2]
G|---------------------|
D|----5----------------|
A|-----------3--5--3---|
E|-5-------------------|

[Figure 3]
G|---------------------|
D|-5/7-----------------|
A|----------3--5--3----|
E|---------------------|

[Chorus]
G|-------------------|------7-----10-----9-----7-|------------------|------9------12-----11-----9--|
D|-------------------|---------------------------|------------------|------------------------------|
A|--0--0--0--0--0--0-|---5-----8------7-----5----|-0--0--0--0--0--0-|---7-----10------9------7-----|
E|-------------------|---------------------------|------------------|------------------------------|

G|-------------------|---------------------------|
D|-------------------|---------------------------|
A|--0--0--0--0--0--0-|---5---------//////////----|
E|-------------------|---------------------------|

[Outro]
G|-------------------|
D|-------------------|
A|-3--5-----3--5--3--|
E|-------------------|

(Vary between the following three figures. Listen to the song for the order.)

[Figure 1]
G|---------------------|
D|---------------------|
A|-----------3--5--3---|
E|--5\3----------------|

[Figure 2]
G|---------------------|
D|----5----------------|
A|-----------3--5--3---|
E|-5-------------------|

[Figure 3]
G|---------------------|
D|-5/7-----------------|
A|----------3--5--3----|
E|---------------------|

G|-------------------|---------------------------|
D|-------------------|---------------------------|
A|--0--0--0--0--0--0-|---5-----------------------|
E|-------------------|---------------------------|


************************************

| /  Slide up
| \  Slide down
| h  Hammer-on
| p  Pull-off

************************************

            
            
Suggest correction
Creating personal tab
Creating personal tab
You can edit any tab online and save it as your Personal.

You can edit, replace or remove any tab part or add personal notes – all changes will be seen only by you.

Personal tabs can be accessed anytime from any device, even offline.
Learn more »
Give kudos to tab author, rate the tab!
1 2 3 4 5
comments
print report bad tab
guest
You may want to rate the tab now too:
select rating
Wanna post a correction for this tab? Suggest correction