Oops, an error
Loading. Please wait.

If She Cries bass

10 views 1 this week
no commentswrite comment
1 2 3 4 5
3 more votes to show rating
add to favorites
×
Save as Personal and add changes to this tab that will be seen only by you. Learn more ›
×
You can save this tab as Personal to edit and correct it or add notes. All changes will be seen only by you. Learn more »
launch autoscroll
font size
0
reset
guitar tuner
edit
Autoscroll
slow
fast
+/-
esc
set tempo
stop
Author
Difficulty
Tabbed by: 6METAL6BASSIST6
E-mail: petergriffinav@gmail.com

Tuning: EADG

G|------------|
D|5-----4-----|
A|------------|
E|------------|

G|----------------------------------------------------------------|
D|2-----------2---2-----------------------------------------------|
A|----------------------------2---3-----------3---5-----------5---|
E|----------------------------------------------------------------|

0:06

G|----------------------/-9-------7-----------7-------------------|
D|5-----------5---5-------------------------------9-----------9---|
A|----------------------------------------------------------------|
E|----------------------------------------------------------------|

G|9-----------9---------------------------------------------------|
D|----------------9-------7---------------------------------------|
A|--------------------------------5-----------5---5---------------|
E|----------------------------------------------------------------|

G|----------------------/-9-------7-----------7-------------------|
D|5-----------5---5-------------------------------9---------------|
A|----------------------------------------------------------------|
E|----------------------------------------------------------------|

G|9-----------9---------------------------------------------------|
D|----------------9-------7---------------------------------------|
A|--------------------------------5-----------5---5---------------|
E|----------------------------------------------------------------|

0:18

G|----------------------------------------------------------------|
D|----------------5---5---------------------------5---------------|
A|3-----------3-----------3-------3-----------3-----------3-------|
E|----------------------------------------------------------------|

G|----------------------------------------------------------------|
D|----------------4---------------2-------0-------5---5-------4---|
A|2-----------2-----------2---------------------------------------|
E|----------------------------------------------------------------|

G|----------------------------------------------------------------|
D|2-----------2---2-----------------------------------------------|
A|----------------------------2---3-----------3---3-----------3---|
E|------------------------3-------------------------------3-------|

G|----------------------------------------------------------------|
D|----------------------------7---------------------------4-------|
A|5-----------5---5---------------5---5-------5---5---------------|
E|----------------------------------------------------------------|

0:31

G|----------------------/-9-------7-----------7-------------------|.
D|5-----------5---5-------------------------------9-----------9---|.
A|----------------------------------------------------------------|.
E|----------------------------------------------------------------|.
                                                                   . x2
G|9-----------9---------------------------------------------------|.
D|----------------9-------7---------------------------------------|.
A|--------------------------------5-----------5---5---------------|.
E|----------------------------------------------------------------|.

0:44

G|----------------------------------------------------------------|
D|----------------5---5---------------------------5---------------|
A|3-----------3-----------3-------3-----------3-----------3-------|
E|----------------------------------------------------------------|

G|----------------------------------------------------------------|
D|----------------4-----------------------------------------------|
A|2-----------2-----------2---------------------------------------|
E|----------------------------------------------------------------|

G|----------------------------------------------------------------|
D|2-----------2---2-----------------------------------------------|
A|----------------------------2---3-----------3---3-----------3---|
E|------------------------3-------------------------------3-------|

G|----------------------------------------------------------------|
D|----------------------------------------------------------------|
A|5-------5-------5---5---5-------5---5---5-------5---5---6-------|
E|----------------------------------------------------------------|

0:56

G|----------------------------------------------------------------|
D|--------------------------------7---------------7---5-----------|
A|7-----------7---7-----------7---------------7---------------7---|
E|----------------------------------------------------------------|

G|----------------------------------------------------------------|
D|------------4---7-------4---7-----------------------------------|
A|5-------------------------------5-----------5---5-------6-------|
E|----------------------------------------------------------------|

G|----------------------------------------------------------------|
D|--------------------------------7---7---7---7---7---7---7---7---|
A|7---7---7---7---7---7---7---7-----------------------------------|
E|----------------------------------------------------------------|

G|----------------------------------------------------------------|
D|--------------------------------------2-----------------4-------|
A|5---5---5---5---5---5---5-------3-----------3---5---------------|
E|----------------------------------------------------------------|

1:10

G|----------------------/-9-------7-----------7-------------------|
D|5-----------5---5-------------------------------9-----------9---|
A|----------------------------------------------------------------|
E|----------------------------------------------------------------|

G|9-----------9---------------------------------------------------|
D|----------------9-------7---------------------------------------|
A|--------------------------------5-----------5---5---------------|
E|----------------------------------------------------------------|

G|----------------------/-9-------7-----------7-------------------|
D|5-----------5---5-------------------------------9---------------|
A|----------------------------------------------------------------|
E|----------------------------------------------------------------|

G|9-----------9---------------------------------------------------|
D|----------------9-------7---------------------------------------|
A|--------------------------------5-----------5---5---------------|
E|----------------------------------------------------------------|

1:22

G|----------------------------------------------------------------|
D|----------------5---5---------------------------5---------------|
A|3-----------3-----------3-------3-----------3-----------3-------|
E|----------------------------------------------------------------|

G|----------------------------------------------------------------|
D|----------------4-----------------------------------------------|
A|2-----------2-----------2---------------------------------------|
E|----------------------------------------------------------------|

G|----------------------------------------------------------------|
D|2-----------2---2-----------------------------------------------|
A|----------------------------2---3-----------3---3-----------3---|
E|------------------------3-------------------------------3-------|

G|----------------------------------------------------------------|
D|----------------------------------------------------------------|
A|5-------5-------5---5---5-------5---5---5-------5---5---6-------|
E|----------------------------------------------------------------|

1:34

G|----------------------------------------------------------------|
D|--------------------------------7---------------7---5-----------|
A|7-----------7---7-----------7---------------7---------------7---|
E|----------------------------------------------------------------|

G|----------------------------------------------------------------|
D|------------4---7-------4---7-----------------------------------|
A|5-------------------------------5-----------5---5-------6-------|
E|----------------------------------------------------------------|

G|----------------------------------------------------------------|
D|--------------------------------7---7---7---7---7---7---7---7---|
A|7---7---7---7---7---7---7---7-----------------------------------|
E|----------------------------------------------------------------|

G|----------------------------------------------------------------|
D|--------------------------------------2-----------------4-------|
A|5---5---5---5---5---5---5-------3-----------3---5---------------|
E|----------------------------------------------------------------|

1:48

G|----------------------/-9-------7-----------7-------------------|
D|5-----------5---5-------------------------------9-----------9---|
A|----------------------------------------------------------------|
E|----------------------------------------------------------------|

G|9-----------9---------------------------------------------------|
D|----------------9-------7-----------------------------------4---|
A|--------------------------------5-----------5---5-------7-------|
E|----------------------------------------------------------------|

G|----------------------/-9-------7-----------7-------------------|
D|5-----------5---5-------------------------------9---------------|
A|----------------------------------------------------------------|
E|----------------------------------------------------------------|

G|----------------------------------------------------------------|
D|----------------------------------------------------------------|
A|7-----------7---7-----------7---5-----------5---5-----------5---|
E|----------------------------------------------------------------|

2:00

G|----------------------------------------------------------------|
D|----------------5-------------------------------5---------------|
A|3-----------3-----------3-------3-----------3-----------3-------|
E|----------------------------------------------------------------|

G|----------------------------------------------------------------|
D|----------------4---------------2-------0-------5-----5-----4---|
A|2-----------2-----------2---------------------------------------|
E|----------------------------------------------------------------|

G|----------------------------------------------------------------|
D|2-----------2---2-----------------------------------5-----4-----| x2
A|----------------------------2---3-----------3---3---------------|
E|------------------------3---------------------------------------|

G|----------------------------------------------------------------|
D|2-----------2---2---------------------2-----------7-----5-------|
A|--------------------------------3-----------3-----------------5-|
E|----------------------------------------------------------------|

G|--------------------------------|
D|--5-----------------------------|
A|--------------------------------|
E|--------------------------------|

            
            
Suggest correction
Creating personal tab
Creating personal tab
You can edit any tab online and save it as your Personal.

You can edit, replace or remove any tab part or add personal notes – all changes will be seen only by you.

Personal tabs can be accessed anytime from any device, even offline.
Learn more »
Give kudos to tab author, rate the tab!
1 2 3 4 5
comments
print report bad tab
guest
You may want to rate the tab now too:
select rating
Wanna post a correction for this tab? Suggest correction