Oops, an error
Loading. Please wait.

Recycled Air Tab

version 1
version 1

Solo

Whole song

7 views 3 this week
no commentswrite comment
1 2 3 4 5
3 more votes to show rating
add to favorites
launch autoscroll
font size
0
reset
how to read this tab
guitar tuner
Autoscroll
slow
fast
+/-
esc
set tempo
stop
Help us to improve Ultimate-Guitar.com Take our survey!
×
Author
It's actually two guitars:

[Guitar 1]
Standard tuning - Capo on 3rd
Starts at 2:47

     C        G       Em        F
e|--(0)--|--(3)--|--(0)--|--(1)--|
B|---1---|---0---|---0---|---1---|
G|---0---|---0---|---0---|---2---|
D|---2---|---0---|---2---|---3---|    
A|---3---|---2---|---2---|---3---|
E|-------|--(3)--|--(0)--|--(1)--|

(It's Basically just these four chords and I think Benjamin just plays the strings A,D,G and B, which leads to
a very gentle sound. Also there is a slight tremolo effect on the guitar.)

[Guitar 2]
Standard tuning
Starts at 3:06

e|-----|------------------|--------------------|------------------|---------------------|
B|-----|------------------|--------------------|------------------|------8--------6-----|
G|-----|-----------0------|------0------3------|-----------0------|---------0--------0--|
D|-----|------0^1------1--|--/3----3/5---------|------0^1------6--|--/8--------8--------|    
A|--1--|--/3--------------|-----------------1--|--/3--------------|---------------------|
E|-----|------------------|--------------------|------------------|---------------------|



************************************

| (n)  Ghost note
| /    Slide up

************************************
Suggest correction
Give kudos to tab author, rate the tab!
1 2 3 4 5
comments
print report bad tab
guest
You may want to rate the tab now too:
select rating
Wanna post a correction for this tab? Suggest correction