Oops, an error
Loading. Please wait.

Live Drive Tab

1,307 views 1 this week
2 commentsread comments
1 2 3 4 5
please rate
add to favorites
launch autoscroll
font size
0
reset
how to read this tab
guitar tuner
Autoscroll
slow
fast
+/-
esc
set tempo
stop
Help us to improve Ultimate-Guitar.com Take our survey!
×
Author
Difficulty
novice
Intro:
e--------------------------------------------------------|
B--------------------------------------------------------|
G-7-7--7----------5-5--5--------------------------7-7--7-|
D-7-7--7--7-7--7--5-5--5--5-5--5--8-8--8--7-7--7--7-7--7-|
A-5-5--5--7-7--7--3-3--3--5-5--5--8-8--8--7-7--7--5-5--5-|
E---------5-5--5----------3-5--3--6-6--6--5-5--5---------|x2 end on G power chord
    Palm mute first two chords of every trio

Verse:
e---------------|
B---------------|
G-7---5-------7-|
D-7-7-5-5-8-7-7-|
A-5-7-3-5-8-7-5-|
E---5---3-6-5---|  play each note 4x Palm mute when singing starts

Chorus:
e---------------------------------------------------------------------|
B---------------------------------------------------------------------|
G-7-7-7-7-7-7-7-7-----------------------------------------------------|
D-7-7-7-7-7-7-7-7-7-7-7-7-7-7-7-7-10-10-10-10-8-8-8-8-7-7-7-7-7-7-7-7-|
A-5-5-5-5-5-5-5-5-7-7-7-7-7-7-7-7-10-10-10-10-8-8-8-8-7-7-7-7-7-7-7-7-|
E-----------------5-5-5-5-5-5-5-5--8--8--8--8-6-6-6-6-5-5-5-5-5-5-5-5-| x2

Post Chorus:
e---------------------------------------------------------------------------|
B---------------------------------------------------------------------------|
G-7-7-7-7---------5-5-5-5---------------------------------------7-----------|
D---------7-7-7-7---------5-5-5-5-8-8-8-8-7-7-7-7-4-7-5-7-5-7-5---8-8-11-11-|
A-5-5-5-5---------3-3-3-3---------------------------------------5-----------|
E---------5-5-5-5---------3-3-3-3-6-6-6-6-5-5-5-5-2-5-3-5-3-5-3---6-6--9--9-|

e----
B----
G----
D-12-
A----
E-10-

Verse (Palm muted)
Chorus

Bridge 1:
e-------------------------------|
B-------------------------------|
G-10-10-9-7-------5-5-6-7-------|
D-10-10-9-7-drums-5-5-6-7-drums-|
A-8--8--7-5-------3-3-4-5-------|
E-------------------------------| x2

Bridge 2:
e------------------------------------------------------|
B------------------------------------------------------|
G---------------------------------------7--------------|
D-4-4-7-7-4-4-7-7-4-4-7-7-4-7-5-7-5-7-5---8-8-11-11-12-|
A---------------------------------------5--------------|
E-2-2-5-5-2-2-5-5-2-2-5-5-2-5-3-5-3-5-3---6-6--9--9-10-|

Chorus x4
Verse x2

end on:
e---
B---
G-7-
D-7-
A-5-
E-5-

There you go
Suggest correction
What's this?
You can suggest a correction to this tab. Community and Mods will review your correction and vote to approve or reject it.
comments
We did not receive enough feedback on this tab! Please rate:
print report bad tab
1 2 3 4 5
2 comments total.
0 reply
redcodefinal 12 wrote on November 12 2010, 11:02 am

I believe the chorus goes more like this (BTW I think the 4-6-6 power chord is wrong. I have no musical ability)

Chorus:
e------------------------------------------------------------------------------------|
B------------------------------------------------------------------------------------|
G-7-7-7-7-7-7-7-7-----------------------------------------------------7-7-7-7-7-7-7-7|
D-7-7-7-7-7-7-7-7-7-7-7-7-7-7-7-7-10-10-10-10-6-6-6-6-8-8-8-8-7-7-7-7-7-7-7-7-7-7-7-7|
A-5-5-5-5-5-5-5-5-7-7-7-7-7-7-7-7-10-10-10-10-6-6-6-6-8-8-8-8-7-7-7-7-5-5-5-5-5-5-5-5|
E-----------------5-5-5-5-5-5-5-5--8--8--8--8-4-4-4-4-6-6-6-6-5-5-5-5----------------| x2

0 reply
redcodefinal 12 wrote on November 12 2010, 11:03 am

I believe it goes more like this

Chorus:
e------------------------------------------------------------------------------------|
B------------------------------------------------------------------------------------|
G-7-7-7-7-7-7-7-7-----------------------------------------------------7-7-7-7-7-7-7-7|
D-7-7-7-7-7-7-7-7-7-7-7-7-7-7-7-7-10-10-10-10-6-6-6-6-8-8-8-8-7-7-7-7-7-7-7-7-7-7-7-7|
A-5-5-5-5-5-5-5-5-7-7-7-7-7-7-7-7-10-10-10-10-6-6-6-6-8-8-8-8-7-7-7-7-5-5-5-5-5-5-5-5|
E-----------------5-5-5-5-5-5-5-5--8--8--8--8-4-4-4-4-6-6-6-6-5-5-5-5----------------| x2

guest
You may want to rate the tab now too:
select rating
Please do not post tabs as comments. Select "correction" instead!