Oops, an error
Loading. Please wait.

Are You The One bass

version 1
version 1

Whole song

Interactive

214 views 1 this week
no commentswrite comment
1 2 3 4 5
3 more votes to show rating
add to favorites
×
Save as Personal and add changes to this tab that will be seen only by you. Learn more ›
×
You can save this tab as Personal to edit and correct it or add notes. All changes will be seen only by you. Learn more »
launch autoscroll
font size
0
reset
guitar tuner
edit
Autoscroll
slow
fast
+/-
esc
set tempo
stop
this is a dope track of the presets album beams. saw it live at 
field days. think i was peaking at the time so i decided to tab
it out when i got home. people seem to be tabbing this out in drop
D tuning, but i find if you really wanna get those low notes, the ones
that get those teeth grinding, you gotta drop it down to C.

tuning CADG


Intro
g----------------|
d----------------|
a--2--3---2--3-1-|
c----------------|  X 2  

Verse
g----------------|
d----------------|
a--2--3---2--3-1-|
c----------------|  X 2  

g----------------|
d----------------|
a----------------|
c--4--5---4--5-3-|  X 2


Pre Chorus

g----------------|
d----------------|
a----3--3----6-6-|
c--0--0----3--3--|  X 2 

Chorus
  

g---------------------------------------|
d---------------------------------------|
a----2-3---2-3-1-------2-3---2-3-1------|
c--4----------------4-------------------| X 2

            
            
Suggest correction
Creating personal tab
Creating personal tab
You can edit any tab online and save it as your Personal.

You can edit, replace or remove any tab part or add personal notes – all changes will be seen only by you.

Personal tabs can be accessed anytime from any device, even offline.
Learn more »
Give kudos to tab author, rate the tab!
1 2 3 4 5
comments
print report bad tab
guest
You may want to rate the tab now too:
select rating
Wanna post a correction for this tab? Suggest correction