Oops, an error
Loading. Please wait.

Steamworks bass

413 views 1 this week
1 commentread comment
1 2 3 4 5
3 more votes to show rating
add to favorites
×
Save as Personal and add changes to this tab that will be seen only by you. Learn more ›
×
You can save this tab as Personal to edit and correct it or add notes. All changes will be seen only by you. Learn more »
launch autoscroll
font size
0
reset
guitar tuner
edit
Autoscroll
slow
fast
+/-
esc
set tempo
stop
Title: Steamworks
Artist: The Presets
Album: Beams


This is the tab for the main riff played by the bass synth throughout the whole song. 
First time tabbing, so if there any mistakes in here, I will correct them as time goes on.

Main Riff (repeated throughout the whole song):

g|------------------|------------------|------------------|------------------|
D|------------------|------------------|------------------|------------------|
A|------9-----8-----|-7---5---4--------|-7---5---4--------|-7---5---4----4---|
E|--7-7---7-7---7-7-|---7---7---10-7-7-|---7---7---10-7-7-|---7---7---10---5-|

            
            
Suggest correction
Creating personal tab
Creating personal tab
You can edit any tab online and save it as your Personal.

You can edit, replace or remove any tab part or add personal notes – all changes will be seen only by you.

Personal tabs can be accessed anytime from any device, even offline.
Learn more »
Give kudos to tab author, rate the tab!
1 2 3 4 5
comments
print report bad tab
1 comment total.
0 reply
au_bu 31 May 24, 2013 11:35 AM

The beginning is correct, the second part has some mistakes in my opinion:

g|-------- --------|-------- --------|-------- --------|-------- --------|
D|----4--- --3-----|2------- --------|-------- --2-----|-------- --------|
A|2-2---2- 2---2-2-|--2-5-2- 2-4-2-2-|5-2-5-2- 2---2-2-|5-2-5-2- 2-4-0-0-|
E|-------- --------|-------- --------|-------- --------|-------- --------|

g|-------- --------|--------- --------|---------- --------|---------- --------|
D|-------- --------|--------- --------|---------- --------|---------- --------|
A|----9--- --8-----|7-------- --------|---------- --7-----|---------- --------|
E|7-7---7- 7---7-7-|--7-10-7- 7-9-7-7-|10-7-10-7- 7---7-7-|10-7-10-7- 7-9-5-5-|

- Au

guest
You may want to rate the tab now too:
select rating
Wanna post a correction for this tab? Suggest correction