Oops, an error
Loading. Please wait.
511 views 1 this week
no commentswrite comment
1 2 3 4 5
please rate
add to favorites
launch autoscroll
font size
0
reset
how to read this tab
guitar tuner
Tab Pro tools
  • play this tab
  • loop segment
  • change instrument
  • show fretboard
  • metronome
×
Best way to learn
"Deleter"
Autoscroll
slow
fast
+/-
esc
set tempo
stop
Contributor
Difficulty
intermediate
Presidents of the usa – Deleter
Made by: LudjeW
Email: Ludo_waenink@hotmail.com
This is my first tab, I made it by myself.
Its a very nice song!!

Intro
E|---------------------------------------------------------------------|
B|---------------------------------------------------------------------|
G|---------------------------------------------------------------------|
D|---------4-x-x-x-x--------4-x-x-x-x--------4----6--6--6p4------------|2X
A|--6p-4-6---x-x-x-x—-6p-4-6--x-x-x-x—6p-4-6----------------6p4--------|
E|-----------x-x-x-x----------x-x-x-x----------------------------------|

Refrein
   I got erased...
E|---------------------------------------------------------------------|
B|---------------------------------------------------------------------|
G|---------------------------------------------------------------------|
D|---4---4-----------4---4-----------4---4------------6--6--6p4--------|2X
A|---6---6-----------6---6-----------6---6----------------------6p4----|
E|---4---4-----------4---4-----------4---4-----------------------------|


   gone gone       gone gone      gone gone       shes a deleter..
E|---------------------------------------------------------------------|
B|---------------------------------------------------------------------|
G|---------------------------------------------------------------------|
D|---------4-x-x-x-x--------4-x-x-x-x--------4----6—6--6p4-------------|2X
A|--6p-4-6---x-x-x-x—-6p-4-6--x-x-x-x—-6p-4-6--------------6p4---------|
E|-----------x-x-x-x----------x-x-x-x----------------------------------|

Couplet
well there used to be..
E|---------------------------------------------------------------------|
B|---------------------------------------------------------------------|
G|-------------6---------------6--------------6--------------6---------|
D|--6---6---6--6----6---6---6--6---6---6---6--6---6---6---6--6---------|
A|--6---6---6--4----6---6---6--4---6---6---6--4---6---6---6--4---------|
E|--4---4---4-------4---4---4------4---4---4------4---4---4------------|

E|---------------------------------------------------------------------|
B|---------------------------------------------------------------------|
G|-------------6---------------6-------------------8-8-8-8-8-8-8-8-8-----|
D|--6---6---6--6----6---6---6--6----4-4-4-4-4-4-4--8-8-8-8-8-8-8-8-8----|
A|--6---6---6--4----6---6---6--4----4-4-4-4-4-4-4--6-6-6-6-6-6-6-6-6-----|
E|--4---4---4-------4---4---4-------2-2-2-2-2-2-2----------------------|

Refrein
   I got erased...
E|-------------------------------------------------------------------|
B|-------------------------------------------------------------------|
G|-------------------------------------------------------------------|
D|---------4-x-x-x-x--------4-6-x-x---------4----6--6--6p4-----------|2X
A|--6p-4-6---x-x-x-x—-6p-4-6----x-x-—6p-4-6----------------6p4-------|
E|-----------x-x-x-x------------x-x----------------------------------|

   gone gone       gone gone      gone gone       shes a deleter..
E|---------------------------------------------------------------------|
B|---------------------------------------------------------------------|
G|---------------------------------------------------------------------|
D|---------4-x-x-x-x--------4-x-x-x-x--------4---6-6-6p-4--------------|2X
A|--6p-4-6---x-x-x-x—-6p-4-6--x-x-x-x—6p-4-6--------------6p-4---------|
E|-----------x-x-x-x----------x-x-x-x----------------------------------|


Solo:
Guitar 1 
E|----|
B|----|
G|----|
D|--4-|6x
A|--4-|
E|--2-|

E|------------------------|
B|------------------------|
G|--------4--6------------|
D|-4--7---4--6---4--------|
A|-4--7---2--4---4--------|
E|-2--5----------2--------|

Guitar 2
(phaser?)(wah wah?)
E|----------------------------------------------|
B|----------------------------------------------|
G|----------------------------------------------|
D|--16—-16--16--16----16--16--14----------------|4x
A|--16—-16--16--16----16--16--14----------------|
E|--14--14--14--14----14--14--12----------------|

E|-------------------------------------------------------|
B|-------------------------------------------------------|
G|-----------------------------------------2---2-2—4p2---|
D|---4-----2-----------------2h4-------2h4---4-----------|
A|-----------4-2p0---2p0—2h4------2h4--------------------|
E|-------------------------------------------------------|


E|---------------------------------------------------------------------|
B|---------------------------------------------------------------------|
G|-4b6--4b6--4b6--4b6—-4\6-4-2----4\6-4-2----4h6-4h6—4h6-4\5-4-2-------|
D|-----------------------------4-----------4---------------------2-4---|
A|---------------------------------------------------------------------|
E|---------------------------------------------------------------------|


E|--------|
B|--------|
G|--------|
D|--4--4--|6x 
A|--6--6--|
E|--4--4--|


There used to be tears in my eyes..   A certain man could ruin my plan..
E|--------|				E|-----------------------------|
B|--------|				B|-----------------------------|
G|--------|				G|------------------8-8-8-8----|
D|--4--4--|12x 				D|--4-4-4-4-4-4-4---8-8-8-8----|
A|--6--6--|				A|--4-4-4-4-4-4-4---6-6-6-6----|
E|--4--4--|				E|--2-2-2-2-2-2-2--------------|



Refrein
   I got erased...
E|-------------------------------------------------------------------|
B|-------------------------------------------------------------------|
G|-------------------------------------------------------------------|
D|---------4-x-x-x-x--------4-6-x-x---------4----6--6--6p4-----------|2X
A|--6p-4-6---x-x-x-x—-6p-4-6----x-x-—6p-4-6----------------6p4-------|
E|-----------x-x-x-x------------x-x----------------------------------|

   gone gone       gone gone      gone gone       shes a deleter..
E|-------------------------------------------------------------------|
B|-------------------------------------------------------------------|
G|-------------------------------------------------------------------|
D|---4---4-----------4---4----------4---4----------6-—6--6p4---------|2X
A|---6---6-----------6---6----------6---6-------------------6p4------|
E|---4---4-----------4---4----------4---4----------------------------|


Outro
oooooooo and im lonely for you...
E|-------------------------------------------------------------------|
B|-------------------------------------------------------------------|
G|-------------------------------------------------------------------|
D|---4---6-----------4---6----------4---6-----------6--6--6--6--6--6-|4x
A|---6---------------6--------------6--------------------------------|
E|---4---------------4--------------4--------------------------------|

            i’m gone      your gone       were gone 
E|-------------------------------------------------------------------|
B|-------------------------------------------------------------------|
G|-------------------------------------------------------------------|
D|---6---6----------6---6----------6---6----------6--6--6--6--6--6---|4x
A|-------------------------------------------------------------------|
E|-------------------------------------------------------------------|

comments
We did not receive enough feedback on this tab! Please rate:
print report bad tab
1 2 3 4 5
I want to post or [tab]
guest
You may want to rate the tab now too:
select rating
Please do not post tabs as comments. Select "correction" instead!