Oops, an error
Loading. Please wait.

Dune Buggy tab

version 1
version 1

Whole song

Interactive

18,328 views 36 this week
2 commentsread comments
1 2 3 4 5
x 6
add to favorites
×
Save as Personal and add changes to this tab that will be seen only by you. Learn more ›
×
You can save this tab as Personal to edit and correct it or add notes. All changes will be seen only by you. Learn more »
launch autoscroll
font size
0
reset
how to read this tab
guitar tuner
edit
Autoscroll
slow
fast
+/-
esc
set tempo
stop
Author
Difficulty
Intro:
e|-----------------------------------------------------------------------------|
B|-----------------------------------------------------------------------------|
G|-----------------------------------------------------------------------------|
D|-----------------------------------------------------------------------------|
A|----------------11^---11---11------------------------------------------------|
E|-----11^---11----------------------------------------------------------------|

* After each bend up, keep it bent up to play one more note.  The last note in
  the riff is just a normal note.

Verse Riff:
e|-----------------------------------------------------------------------------|
B|-----------------------------------------------------------------------------|
G|--------------------------------------13-----------13---13---11---x----------|
D|-----11---------12----13--------------13-----------13---13---11---x----------|
A|-----11---------12----13--------------11-----------11---11---9----x----------|
E|-----9----------10----11-----------------------------------------------------|
         A ..

Alternate Verse Riff:
e|-----------------------------------------------------------------------------|
B|-----------------------------------------------------------------------------|
G|--------------------------------------13-----------12/13---13---11---x-------|
D|-----11---------12----13--------------13-----------12/13---13---11---x-------|
A|-----11---------12----13--------------11-----------10/11---11---9----x-------|
E|-----9----------10----11-----------------------------------------------------|
         A ..

Chorus:
e|-----------------------------------------------------------------------------|
B|-----------------------------------------------------------------------------|
G|-------------------------11-------------------------------11------13---------|
D|-----13------------------11------------13-----------------11------13---------|
A|-----13------------------9-------------13-----------------9-------11---------|
E|-----11--------------------------------11------------------------------------|
         Little ..

Pre-Outro:
e|-----------------------------------------------------------------------------|
B|-----------------------------------------------------------------------------|
G|------------------14--14--14--14--16----------------14--14--14--14-16--------|
D|-----15--15--15---14--14--14--14--16---15--15---15--14--14--14--14-16---15-15|
A|-----15--15--15---12--12--12--12--14---15--15---15--12--12--12--12-14---15-15|
E|-----13--13--13------------------------13--13---13----------------------13-13|
                    My ..

Outro:
e|-----------------------------------------------------------------------------|
B|-----------------------------------------------------------------------------|
G|-----14------------16---------------18---------------------------------------|
D|-----14------------16---------------18---------------------------------------|
A|-----12------------14---------------16---------------------------------------|
E|-----------------------------------------------------------------------------|
       Little..


Here's the song with riff guidelines.  Just keep playing the riff until it tells
you to play a new one.  It's a good idea to play along with the song a couple
times before you can do it on your own.  Dave plays the alternate verse riff
during most of the last verse and then switches back to the normal one.

(Intro)
(Verse Riff)
A ..
Navigating ..
Gotta, ..
All ..
(Chorus)
Little ..
(Intro)
(Verse Riff)
I ...
Quit ..
8 ..
Spider's ..
(Chorus)
My ..
(Intro)
(Alt Verse Riff)
Squishy ..
Spiderman ..,
Spiderwoman ..
He's ..
(Verse Riff)
With ..
(Chorus)
Little ..
(Intro)
(Pre-Outro)
My ..
My ..,
My ..
My ..,
             (Outro)
Alright ...

            
            
Suggest correction
Creating personal tab
Creating personal tab
You can edit any tab online and save it as your Personal.

You can edit, replace or remove any tab part or add personal notes – all changes will be seen only by you.

Personal tabs can be accessed anytime from any device, even offline.
Learn more »
comments
print report bad tab
2 comments total.
+1 reply
Jelmer 76 Aug 17, 2008 03:45 AM

I'd suggest you play the power chords on two strings instead of three, because this tab uses a range of four strings. PUSA uses a guitar with only three strings....

0 reply
burd.johnathan 10 Apr 02, 2016 07:50 PM

as of the second chord it sounds plainly wrong. it moves up one fret here when the actual song moves two

guest
You may want to rate the tab now too:
select rating
Wanna post a correction for this tab? Suggest correction