Oops, an error
Loading. Please wait.

Mach 5 Tab

version 1
version 1

Whole song

Interactive

3,478 views 18 this week
1 commentread comment
1 2 3 4 5
worth learning
x 4
add to favorites
launch autoscroll
font size
0
reset
how to read this tab
guitar tuner
Tab Pro tools
  • play this tab
  • loop segment
  • change instrument
  • show fretboard
  • metronome
Autoscroll
slow
fast
+/-
esc
set tempo
stop
Contributor
The presidents of the USA
Tabbed By Dave Wachala 009Dave@collegeclub.com

Standard tuning

Intro:
-------------------------------------------------------
-------------------------------------------------------
-------------------------------------------------------
-9-----9----9----9----9----9----9----7-----9p7-9p7--7--
-9-----11p9-11p9-9----11p9-11p9-9----7-----9p7-9p7--7--
-7-----7----7----7----7----7----7----5-----5---5----5--

Chorus:
F#5                         E5             B5        F#5          
I will survive, In my mach 5,In my mach 5 I will survive,

 Yaaa a yaaa
-------------------------------
-------------------------------
--------------2--2-------------
-4-------2----2--2-------------
-4-------2----0--0--0h2-2-2-0--
-2-------0-------------------0-

Then the last one of the chorus just slide up to a "A"
instead of that riff

Verse:
             I bring the hammer down.           A tiny crushing sound  
             And I'm in the yard                Smashing match box cars 
             An itty bitty crash                And my machine is trash 
             But I'm blastin' past                 
-------------------------------------------------
-------------------------------------------------
-------------------------------------------------
-------------------------------------------------
-7/9--9---7-9------------------------7/9--9--2-2-
-5/7--7---5-7------------------------5/7--7--0-0-
Ab5                                                Play intro 2 times(acoustic)
With chickey on the dash, chickey on the gas... go chickey 


Chorus

Verse 2:
(Same verse riff)
The firecracker blow 
An urge overload 
The wild plastic fire 
Smoke from the tire 
Layin' a little patch 
Without a single scratch 
Between the hammer and the rock I 
                         Ab
Can see a bright blue mach 5, it's my mach 5 

This part has a semi-dirty guitar sound and here is the riff:
--------------------------------------------------
--------------------------------------------------
--------------------------------------------------
-4-4---4---4-4-4---4---2-2---2---2-/-9-9----9----9-
-4-6p4-6p4-4-4-6p4-6p4-2-4p2-4p2-2-/-9-11p9-11p9-9-
-2-2---2---2-2-2---2---0-0---0---0-/-7-7----7----7-

Oh my goodness... 
It's the most beautiful 
Little thing I've ever seen in my life 
It's blue on the outside 
And all creamy on the inside... yeah 
I can't bring myself to smash it 
So I take it for a ride on a 
                         F#5
Sunny summer Sunday afternoon   
                              E5
And I'm riding with the top down 
Riding with the top down 
                       B55
Riding with the top down 
  Ab5
Hell I blew the top right off my car!

Then play the intro 4 times with some wierd effect  

Outro:
Chorus 2 times

Then he starts singing "I want to go!"
I---------------------------------I-----------------I
I-----------PLAY TWICE------------I-----------------I
I---------------------------------I-----------------I
I-4-4-4-4-4-4-4-4-9-9-9-9-9-9-9-9-I--2----3----4----I
I-4-4-2-4-4-4-2-4-9-9-7-9-9-9-7-9-I--2----3----4----I
I-2-2-2-2-2-2-2-2-7-7-7-7-7-7-7-9-I--0----1----2----I

I------------------------------I
I------------------------------I
I-1-0-2B-1-0----0--------------I
I------------1h2-1-------------I
I------------------2-1---------I
I----------------------5b-b-b-bI
comments
print report bad tab
1 comment total.
-1 reply
rochey&u69 wrote on May 11 2002, 12:00 am

A sick song deserves a sick tabbing! Great work!

I want to post or [tab]
guest
You may want to rate the tab now too:
select rating
Please do not post tabs as comments. Select "correction" instead!