Oops, an error
Loading. Please wait.
1,258 views 1 this week
1 commentread comment
1 2 3 4 5
x 5
add to favorites
×
Save as Personal and add changes to this tab that will be seen only by you. Learn more ›
×
You can save this tab as Personal to edit and correct it or add notes. All changes will be seen only by you. Learn more »
launch autoscroll
font size
0
reset
guitar tuner
edit
Autoscroll
slow
fast
+/-
esc
set tempo
stop
Author
Munky River
The Presidents of the United States


Standard Tuning


Intro/verses
(repeat until chorus)

G-------2h3h4-----------------------------------|
D-------------------------2h3h4---4--4----2--2--|
A---4------------5h6p4--------------------------|
E-----------------------------------------------|

Chorus
(don't play during first chorus)

G-----------------4-----------------------------|
D-----------------------------------------------|
A------4-------------------------4--------------|
E-----------------------------------------------|

This is my first tab, so I hope everyone enjoys it.
If you find anything wrong, feel free to email me
at meatball1209@gmail.com

            
            
Suggest correction
Creating personal tab
Creating personal tab
You can edit any tab online and save it as your Personal.

You can edit, replace or remove any tab part or add personal notes – all changes will be seen only by you.

Personal tabs can be accessed anytime from any device, even offline.
Learn more »
comments
print report bad tab
1 comment total.
0 reply
snazzy guy 70 Jun 25, 2008 10:59 AM

Nice tab! I was having a bit of trouble for some reason, so I go online and here it is. Good bassline.

guest
You may want to rate the tab now too:
select rating
Wanna post a correction for this tab? Suggest correction