Oops, an error
Loading. Please wait.

Naked And Famous Tab

version 1
version 1

Solo

Interactive

3,786 views 1 this week
no commentswrite comment
1 2 3 4 5
3 more votes to show rating
add to favorites
launch autoscroll
font size
0
reset
how to read this tab
guitar tuner
Autoscroll
slow
fast
+/-
esc
set tempo
stop
Author
Band: Presidents of the United States of America
Song: Naked and Famous (solo)

Starts at 1:52

|-----------------------------------------------------------------|
|-----------------------------------------------------------------|
|------------------------12b15==(12)r(12)-10----10h12p10----10-10-|
|-12--12-10-12--12-12-12---------------------12----------12-------|
|--x--------------------------------------------------------------|
|--0--------------------------------------------------------------|

|----------------------10-10h13-10-13--13b15-----(13)--|
|-12------------/12------------------------------------|
|------------------------------------------------------|
|------------------------------------------------------|
|------------------------------------------------------|
|------------------------------------------------------|

|-------13p10-----13p10-----------------------------|
|---------------------------13p10----13p12----------|
|---------------------------------------------12p10-|
|---------------------------------------------------|
|---------------------------------------------------|
|---------------------------------------------------|

|----------------------------------------------------------------------------|
|--------------------------------------------------13-13-(13)-------------13-|
|-10-12b14==(12)-12pb14-(12)r12-10----10-12b14==(12)---------12pb14-(12)-----|
|----------------------------------12----------------------------------------|
|----------------------------------------------------------------------------|
|----------------------------------------------------------------------------|

|----------------------------------------------------------------------|
|----------------------------------------------------------------------|
|-12pb14-(12)r(12)p10--------------10------10--------------------------|
|---------------------12----10-12-----------------12-10-12p10----10-10-|
|-------------------------------------------------------------12-------|
|----------------------------------------------------------------------|

|-------------------------------------------------|
|-------------------------------------------------|
|-------------------------------------------------|
|-------------------------------------------------|
|-------------------------------------------------|
|-10h12-12-12-12-12-12-12-12-12-12-12-12-12-12-12-|

|-------------------------------|
|-------------------------------|
|-------------------------------|
|-10--x-x-12---(12)-----10------|
|-------------------------------|
|-------------------------------|

|----------------------------------------|
|----10-----------13-----(13)-(13)-------|
|----10--------10-12b14==(12)r(12)-12-10-|
|-----------12---------------------------|
|----------------------------------------|
|-0--------------------------------------|

|--------------------------------------|
|-------------10---(10)----------------|
|-12p10----10-10---(10)----------------|
|-------12--------------------/12\-----|
|--------------------------------------|
|--------------------------------------|

|----------------------------------------|-----------------------------------|
|--------10-------------------------13---|---------13---------------13-13b15-|
|--------10----------10-12-12pb14==(12)--|-12pb14-(12)--12pb14-(12)r---------|
|-----------------12---------------------|--------------------------12-------|
|----------------------------------------|-----------------------------------|
|--0-------------------------------------|-----------------------------------|

|-------13-13-(13)-----(13)-----(13)-(13)-10-13-|-10-------------------------|
|-15-15-----------------------------------------|------------13--------------|
|-----------------------------------------------|----------------------------|
|-----------------------------------------------|----------------------------|
|-----------------------------------------------|----------------------------|
|-----------------------------------------------|----------------------------|

After bridge solo:

|----------------------------------------------------------------------------|
|------------10-13p10------------10-13p10----------10-13p10---------1013p10--|
|-12b14-(12)----------12b14-(12)--------12b14-(12)-------12b14-(12)----------|
|----------------------------------------------------------------------------|
|----------------------------------------------------------------------------|
|----------------------------------------------------------------------------|

|----------------------------------------------------------------------------|
|--------------10-13p==10--------------10-13p==10---10-13p==10--10-13p==10---|
|-12b14-(12)--------------12b14-(12)-------------12b14-(12)----12b14-(12)----|
|----------------------------------------------------------------------------|
|----------------------------------------------------------------------------|
|----------------------------------------------------------------------------|

|-------------------------------------------10-10h13p10----10h13p10----|
|-13b15-(13)-------13b15==(13)r(13)b15-(13)-------------13----------13-|
|----------------------------------------------------------------------|
|----------------------------------------------------------------------|
|----------------------------------------------------------------------|
|----------------------------------------------------------------------|

|-------------------------------------|
|-10----------------------------------|
|----12p10----10-12--(12)b14===(12)---|
|----------12-------------------------|
|-------------------------------------|
|-------------------------------------|


|---------------------------------------------------------|
|---------12-12---12-13---(13)-----13-13b14==(13)r(13)----|
|---------------------------------------------------------|
|-9---9---------------------------------------------------|
|---------------------------------------------------------|
|---------------------------------------------------------|

|---------------------------------------|-----------------------|
|-10------------------10-------12S======|=15-18-(18)--(18)---x\-|
|---------------11h12-------------------|--------------------x\-|
|---------------------------------------|-----------------------|
|---------------------------------------|-----------------------|
|---------------------------------------|-----------------------|

|--------------------13-10------------10-13-10-------|
|-13---10---13-------------13b15-(13)----------13-10-|
|----------------------------------------------------|
|----------------------------------------------------|
|----------------------------------------------------|
|----------------------------------------------------|

|----------------------------------------------|
|-13-10------10-----------------9-10-12-9------|
|---------12---------------9-11-----------11-9-|
|----------------------------------------------|
|----------------------------------------------|
|----------------------------------------------|

|---------------------------------------------------|--------------|
|---------------------------------------------------|--------------|
|-(9)\---------------------10-12b14-(12)-------10---|-12-----------|
|--------------10h12-12-12---------------------10---|-12-----------|
|---------------------------------------------------|--------------|
|---------------------------------------------------|--------------|

|--------------------------------------|-------------------------------------|
|--------------------------13-12-11-10-|-------------------10-13-------------|
|--------------------------------------|-13-12-11-10-12-13-------12-10-------|
|--------------------------------------|-------------------------------------|
|--------------------------------------|-------------------------------------|
|--------------------------------------|-------------------------------------|

|---13b15==(13)-----------(13)r==|=(13)--(13)--------------------------------|
|--------------------------------|-------------------------------------------|
|--------------------------------|-------------------------------------------|
|--------------------------------|-------------------------------------------|
|--------------------------------|-------------------------------------------|
|--------------------------------|-------------------------------------------|

|-15------------------15b17=====(15)----(15)r|=(15)-15--------(15)-13----13--|
|--------------------------------------------|------------------------15-----|
|-----0--0--0-0--0--0------------------------|-------------------------------|
|--------------------------------------------|-------------------------------|
|--------------------------------------------|-------------------------------|
|--------------------------------------------|-------------------------------|

|------------------------------------------------|---------------------------|
|-(15)--13h15p13s12-12------12-12h13-13b15==(13)r|=(13)-12-(12)---10--10-----|
|------------------------------------------------|---------------------------|
|------------------------------------------------|---------------------------|
|------------------------------------------------|---------------------------|
|------------------------------------------------|---------------------------|

|-------------------------------------------------|
|-------------------------------------12b13==(12)r|
|---------------10---(10)--------10---12b13==(12)r|
|-----/12-------------------12---10---------------|
|---------------------------12--------------------|
|-------------------------------------------------|

|-10----------------------------------------------------|
|----13p10----13b15-(13)-------(13)---13p10----------10-|
|----------12-------------------------------12-10-12----|
|-------------------------------------------------------|
|-------------------------------------------------------|
|-------------------------------------------------------|

|-----------------------------:
|-----------------------------:
|-10---12b14==(12)r(12)-------:
|-----------------------10----:
|-----------------------------:
|-----------------------------:

|-------------------------------:---------------:
|-------------------------------:---------------:
|-------------------------------:---------------:
|-(10)--12p10h12p10h12p10h12----:-(12)----------:
|-------------------------------:---------------:
|-------------------------------:---------------:

|----------:---------------:--------------*|
|----------:---------------:--------------*|
|----------:---------------:--------------*|
|----------:---------------:--------------*|
|----------:-9----7h9p7-5--:--5-----------*|
|----------:-0----------0--:--0-----------*|


Suggest correction
Give kudos to tab author, rate the tab!
1 2 3 4 5
comments
print report bad tab
guest
You may want to rate the tab now too:
select rating
Wanna post a correction for this tab? Suggest correction