Oops, an error
Loading. Please wait.

Peaches Tab

version 1
version 1

Whole song

Interactive

138,590 views 111 this week
20 commentsread comments
1 2 3 4 5
x 44
add to favorites
launch autoscroll
font size
0
reset
how to read this tab
guitar tuner
×
Best way to learn
"Peaches"
Autoscroll
slow
fast
+/-
esc
set tempo
stop
[Intro]

Chris's bassitar has some kinda intro I think and then this floats in with
some trem:

e|-----------------------------------------------|
B|-----------------------------------------------|      <-- this stuff might
G|-----------------------------------------------|          be wrong, but it
D|-----------------------------------------------|          sounds ok...
A|-9-9-9-8-6-6-6h8p6-4--9s13-13-13-11s6-6-6h8p6-4|
E|-----------------------------------------------|

Play that twice with the tremelo, then normal 4 times with the singing.


[Verses]


E            A        E
 Peaches come from a can,
E           A            E
 they were put there by a man,
      A          G#
 in a factory downtown...


E         A             E
 an if I had my little way
          A           E
 I'd eat peaches everyday
        A            G#
 some ????  ????? ???? shade??I took a little nap where the ?????
squshed a rotton peach in my fist
and dreamed about you.. woman

Poked my finger down inside
made a little room for an ant to hide
nature's candy in my hand or canned or pie...


then play somethin like this 18 times:

E|-----------------------------------|
B|-----------------------------------|
G|-----------------------------------|
D|-----------------------------------|
A|-----------------------------------|
E|---9-9-9-7-7-7-7-7-6-6-6-7-7-7-7-7-|

millions of peaches, peaches for me
millions of peaches, peaches for free...
 

************************************

| h  Hammer-on
| p  Pull-off

************************************
Suggest correction
comments
print report bad tab
20 comments total. Showing first comments.
0 reply
make7_upyours 10 Nov 10, 2003 07:00 PM

alright i tried playing the introduction with the song and it was all too high, instead of starting on 9 on the second string, start on 7, and just do everything the same according to that string.

|---------------------------------------------|
|---------------------------------------------|
|---------------------------------------------|
|---------------------------------------------|
|7-7-7-6-4-4-4h6p4-2--7s11-11-9-9s4-4-4-6-4-2-|
|---------------------------------------------|

now i may not be totally right..so yeah sorry if i'm not
presidents rule.

+1 reply
nikonus 10 Jan 23, 2004 07:00 PM

Both versions sound pretty close to me - but hey - i've been told i'm tone deaf.

-2 reply
skinnyjim 10 Mar 11, 2004 07:00 PM

i find that the part at the end is better like this
|---------------------------------------------|
|---------------------------------------------|
|9-9-9/7-7-7/6-6-6/7-7-7----------------------|
|x-x-x/x-x-x/x-x-x/x-x-x----------------------|
|7-7-7/5-5-5/4-4-4/5-5-5----------------------|
|0-0-0/0-0-0/0-0-0/0-0-0----------------------|

guest
You may want to rate the tab now too:
select rating
Wanna post a correction for this tab? Suggest correction