Oops, an error
Loading. Please wait.

Peaches tab

version 2
version 2

Whole song

Interactive

41,799 views 72 this week
4 commentsread comments
1 2 3 4 5
x 8
add to favorites
×
Save as Personal and add changes to this tab that will be seen only by you. Learn more ›
×
You can save this tab as Personal to edit and correct it or add notes. All changes will be seen only by you. Learn more »
launch autoscroll
font size
0
reset
how to read this tab
guitar tuner
edit
Autoscroll
slow
fast
+/-
esc
set tempo
stop
-----------------------------------------------------------------------------
                             PEACHES - Presidents of The USA
-----------------------------------------------------------------------------
Tabbed by: thizizliz00
Email:thiz_iz_liz@hotmail.com

I'm not sure if this is 100% correct, but it sounds good to me!
 Have fun, rock on

Tuning: E,B,G,D,A,E

[Intro]
e|--------------------------------------------|
B|--------------------------------------------|
G|--------------------------------------------|
D|5-5-5-5-4-2-2-2-4-2----5/9-9-9-7-2-2-4-2----|
A|--------------------5--------------------5--|
E|--------------------------------------------|
  ~ ~ ~ ~ ~ ~ ~ ~ ~ ~ ~    ~ ~ ~ ~ ~ ~ ~ ~ ~

[Verse]
e|--------------------   ----------------------|
B|--------------------   ----------------------|
G|--------------------   ----------------------|
D|--------------------   --8-8-8-8-6-4-4-8-6-3-|
A|-9-9-9-9-8-6-6-8-6-4   --9-9-9-9-8-6-6-6-4-4-| x2
E|--------------------   ----------------------|


[Chorus]
e|---------------------------------------|
B|---------------------------------------|
G|-------2-2-4-------2-2-4-------2-2-4---|
D|-2-2-2-2-2-4-2-2-2-2-2-2-2-2-2-2-2-4-6-|
A|-2-2-2-0-0-2-2-2-2-0-0-2-2-2-2-0-0-2-6-|
E|-0-0-0-------0-0-0-------0-0-0-------4-| x2

[Outro]
e|--------------------------------|
B|--------------------------------|
G|-6-6-6-4-4-4-4-3-3-3-4-4-4-4----|
D|-6-6-6-4-4-4-4-3-3-3-4-4-4-4----|
A|-4-4-4-2-2-2-2-1-1-1-2-2-2-2----|
E|--------------------------------|
 Do it 8 times with palm muting, then 10 times without palm muting

Last Chord
e|---------|
B|---------|
G|---------|
D|-11\-----|
A|-11\-----|
E|-9-\-----|

There!! That was my first tab, hope it doesn't suck =)


************************************

| /  Slide up
| ~  Vibrato
| \  Slide down  

************************************

            
            
Suggest correction
Creating personal tab
Creating personal tab
You can edit any tab online and save it as your Personal.

You can edit, replace or remove any tab part or add personal notes – all changes will be seen only by you.

Personal tabs can be accessed anytime from any device, even offline.
Learn more »
comments
print report bad tab
4 comments total. Showing first comments.
0 reply
bwsweeney256 10 Feb 27, 2006 04:34 PM

This tab looks to be more accurate with the rhythm in some spots. Also, the E-A-B riff is also more accurate than in the other Peaches tabs.

0 reply
iremain60 51 Mar 18, 2007 01:51 PM

i think its awsome! 5 stars.

0 reply
blakeg14 324 Mar 17, 2012 04:07 PM

I agree with bwsweeney256. I play it like this:

e-------------------------------
b-------------------------------
g-------------------------------
d-8-8-8-6-6-6-4-4-4-4-6-6-6-3-3-
a-9-9-9-8-8-8-6-6-6-6-8-8-4-4-4-
e-------------------------------


It's not perfect, but it sounds better.

guest
You may want to rate the tab now too:
select rating
Wanna post a correction for this tab? Suggest correction