Oops, an error
Loading. Please wait.

Peaches tab

version 3
version 3

Whole song

Interactive

10,860 views 9 this week
2 commentsread comments
1 2 3 4 5
x 3
add to favorites
×
Save as Personal and add changes to this tab that will be seen only by you. Learn more ›
×
You can save this tab as Personal to edit and correct it or add notes. All changes will be seen only by you. Learn more »
launch autoscroll
font size
0
reset
how to read this tab
guitar tuner
edit
Autoscroll
slow
fast
+/-
esc
set tempo
stop
Difficulty
Peaches - Presidents of the United States of America         by Sean Dunlop

intro
e|------------------------------------------------|
b|------------------------------------------------|
g|------------------------------------------------|
d|-----------------------/8-8-8-88-6--------------|
a|-9-999-8-6-6-6-6-86-4--------------6-6-6-6-86-4-|
E|------------------------------------------------|
Verse
  peaches come from a can
e|----------------------------------|
b|----------------------------------|
g|-----222-----222-----222----------|
d|-----000-----000-----000----------|
a|-222-----222-----222-----66666666-|
E|-000-----000-----000-----44444444-|

e|-------------------|
b|-------------------|
g|-------------------|
d|-666-4444-333-4444-|
a|-444-2222-111-2222-|
E|-------------------|
Suggest correction
Creating personal tab
Creating personal tab
You can edit any tab online and save it as your Personal.

You can edit, replace or remove any tab part or add personal notes – all changes will be seen only by you.

Personal tabs can be accessed anytime from any device, even offline.
Learn more »
Give kudos to tab author, rate the tab!
1 2 3 4 5
comments
print report bad tab
2 comments total.
0 reply
iremain60 51 Mar 18, 2007 01:26 PM

intro sounds accurate. not sure about the rest of the song.

0 reply
blakeg14 324 Mar 17, 2012 04:09 PM

I play it like this:

e-------------------------------
b-------------------------------
g-------------------------------
d-8-8-8-6-6-6-4-4-4-4-6-6-6-3-3-
a-9-9-9-8-8-8-6-6-6-6-8-8-4-4-4-
e-------------------------------


It's not perfect, but it sounds better.

There's a B after the E and A. It's I-IV-V, or E-A-B.

guest
Wanna post a correction for this tab? Suggest correction