Oops, an error
Loading. Please wait.

Peaches tab

version 4
version 4

Whole song

Interactive

12,217 views 12 this week
2 commentsread comments
1 2 3 4 5
x 6
add to favorites
×
Save as Personal and add changes to this tab that will be seen only by you. Learn more ›
×
You can save this tab as Personal to edit and correct it or add notes. All changes will be seen only by you. Learn more »
launch autoscroll
font size
0
reset
how to read this tab
guitar tuner
edit
Autoscroll
slow
fast
+/-
esc
set tempo
stop
Author
this is a good song to learn how to play because its easy
-please rate, send comment to garrettlane23@yahoo.com

figure out strumming for the C#/ on the 9 9 9 8 just shake the string w/ your finger ( s 
shake)

INTRO. w/out distortion
  C#
|--4--|     |-------------------|-------------------|
|--4--|     |-------------------|-------------------|
|--6--|     |-------------------|-------------------|
|--6--|     |-------------------|-------------------|
|--4--|     |--9s--9s--9s-8s~---|--6-6-6-8-6-4s~----|
|--4--|     |-------------------|-------------------|


|----------------------------------|
|----------------------------------|
|----------------------------------|
|----------------------------------|
|--9--13-13-11s~----6-6-6-8-6-4s~--|
|----------------------------------|


VERSE: w/out distortion

repeat intro. a couple of times then this:


|-------------------------------|     |---------------------------------|
|-------------------------------|     |---------------------------------|
|-------------------------------|     |---------------------------------|
|--11-11-11-10----8-8-8-10-8-6--|     |-11---15-15-13s----8-8-8-10-8-6--|
|--9--9--9--8-----6-6-6--8-6-4--|     |--9---13-15-11s----6-6-6--8-6-4--|
|-------------------------------|     |---------------------------------|


CHORUS: w/ distortion
   figure out strumming for the chorus, its easy
   E        A            B
|--0--|  |--0--|      |--2--|
|--0--|  |--3--|      |--4--|
|--1--|  |--3--|      |--4--|
|--2--|  |--3--|  x3  |--4--|  repeat this pattern twice
|--2--|  |--0--|      |--2--|
|--0--|  |--0--|      |--2--|


VERSE:

CHORUS:

BRIDGE:

|-----------------------------------|
|-----------------------------------|
|-----------------------------------|
|-----------------------------------|  x8
|-----------------------------------|
|--9-9-9-7-7-7-7-7-6-6-6-7-7-7-7-7--|

OUTRO: /w distortion

|--------------------------------------|
|--------------------------------------|
|--------------------------------------|
|--11-11-11-9-9-9-9-9-8-8-8-9-9-9-9-9--|
|--11-11-11-9-9-9-9-9-8-8-8-9-9-9-9-9--|
|---9--9--9-7-7-7-7-7-6-6-6-7-7-7-7-7--|

thats pretty much it. its probably one of my favorite songs to play in my band. every 
note is right.positive.

            
            
Suggest correction
Creating personal tab
Creating personal tab
You can edit any tab online and save it as your Personal.

You can edit, replace or remove any tab part or add personal notes – all changes will be seen only by you.

Personal tabs can be accessed anytime from any device, even offline.
Learn more »
comments
print report bad tab
2 comments total.
-1 reply
blakeg14 324 Mar 17, 2012 04:08 PM

I play it like this:

e-------------------------------
b-------------------------------
g-------------------------------
d-8-8-8-6-6-6-4-4-4-4-6-6-6-3-3-
a-9-9-9-8-8-8-6-6-6-6-8-8-4-4-4-
e-------------------------------

It's not perfect, but it sounds better.

0 reply
jimmy-moto 170 Mar 25, 2016 12:35 PM

Verse is not straight power chords. Actual chords chords are not all 5ths, although I don't actually know what they are yet.

guest
You may want to rate the tab now too:
select rating
Wanna post a correction for this tab? Suggest correction