Oops, an error
Loading. Please wait.
49 views 1 this week
no commentswrite comment
1 2 3 4 5
3 more votes to show rating
add to favorites
×
Save as Personal and add changes to this tab that will be seen only by you. Learn more ›
×
You can save this tab as Personal to edit and correct it or add notes. All changes will be seen only by you. Learn more »
launch autoscroll
font size
0
reset
how to read this tab
guitar tuner
edit
Autoscroll
slow
fast
+/-
esc
set tempo
stop
About this tab version
Full song tab, including leads. Please vote or comment. Was this info helpful? Yes No
[Intro]

   2 guitars - use some wah on one part
Eb|----------------------|-----------------------|------------------------|------------------------|
Bb|----------------------|-----------------------|------------------------|------------------------|
Gb|-7--------------------|-5---------------------|-------7----------------|-4/5--5--4/5--5--4/5----|
Db|-7---------7----------|-5---------5-----------|-x--x--7----7-----------|-4/5--5--4/5--5--4/5----|
Ab|-5---------7----------|-3---------5-----------|-x--x--5----7-----------|-2/3--3--2/3--3--2/3----|
Db|-----------7----------|-----------5-----------|-x--x-------7-----------|------------------------|



[Verse]

   play this 2x
Eb|-------------------------|-------------------------|-------------------------|-------------------------|
Bb|-------------------------|-------------------------|-------------------------|-------------------------|
Gb|-------7-----7-----7--7--|-------------------------|-------5-----5-----5--5--|-------------------------|
Db|-------7-----7-----7--7--|-------7-----7-----7--7--|-------5-----5-----5--5--|-------5-----------------|
Ab|-------5-----5-----5--5--|-------7-----7-----7--7--|-3--3--3--3--3--3--3--3--|-------5-----5--3--5--3--|
Db|-0--0--0--0--0--0--0--0--|-7--7--7--7--7--7--7--7--|-------------------------|-5--5--5--5--5--3--5--3--|

Eb|-------------------------|-------------------------|-------------------------|------------------------|
Bb|-------------------------|-------------------------|-------------------------|------------------------|
Gb|-------7-----7-----7--7--|-------------------------|-------5-----5-----5--5--|------------------------|
Db|-------7-----7-----7--7--|-------7-----7-----7--7--|-------5-----5-----5--5--|-------2----------------|
Ab|-------5-----5-----5--5--|-------7-----7-----7--7--|-3--3--3--3--3--3--3--3--|-------2-----2p0--2p0---|
Db|-0--0--0--0--0--0--0--0--|-7--7--7--7--7--7--7--7--|-------------------------|-2--2--2--2--2p0--2p0---|



[Prechorus]

Eb|-------------------------|-------------------------|-------------------------|
Bb|-------------------------|-------------------------|-------------------------|
Gb|-------------------------|-------------------------|-------------------------|
Db|-2-------------2------5--|-(5)---------5--5--4--0--|-2--------------2-----7--|
Ab|-2-------------2------5--|-(5)---------5--5--4--0--|-2--------------2-----7--|
Db|-2-------------2------5--|-(5)---------5--5--4--0--|-2--------------2-----7--|

Eb|-------------------------|-------------------------|
Bb|-------------------------|-------------------------|
Gb|------------9--11----12~-|-(12~)-------------------| last few notes after A chord 
Db|-(7)---------------------|-------------------------| are 2 guitar parts but can be 
Ab|-(7)--------7--9-----10~-|-(10~)-------------------| played together
Db|-(7)---------------------|-------------------------|



[Chorus]

   
Eb|----------------------|-----------------------|------------------------|------------------------|
Bb|----------------------|-----------------------|------------------------|------------------------|
Gb|-7--------------------|-5---------------------|-------7----------------|-4/5--5--4/5--5--4/5----|
Db|-7---------7----------|-5---------5\----------|-x--x--7----7-----------|-4/5--5--4/5--5--4/5----|
Ab|-5---------7----------|-3---------5\----------|-x--x--5----7-----------|-2/3--3--2/3--3--2/3----|
Db|-----------7----------|-----------5\----------|-x--x-------7-----------|------------------------|

Eb|----------------------|-----------------------|------------------------|----------------------|
Bb|----------------------|-----------------------|------------------------|----------------------|
Gb|-7--------------------|-5---------------------|-------7----------------|-4/5--5--4/5--5--4/5--|
Db|-7---------7----------|-5---------5\----------|-x--x--7----7-----------|-4/5--5--4/5--5--4/5--|
Ab|-5---------7----------|-3---------5\----------|-x--x--5----7-----------|-2/3--3--2/3--3--2/3--|
Db|-----------7----------|-----------5\----------|-x--x-------7-----------|----------------------|

Eb|----------------------|
Bb|----------------------|
Gb|-5--4/5--5--4/5--5/7--|
Db|-5--4/5--5--4/5--5/7--|
Ab|-3--2/3--3--2/3--3/5--|
Db|----------------------|



[Solo]
   Rhythm guitar plays Verse Riff throughout

Eb|------------------------|--------------------------|-------------------------|
Bb|------------------------|--------------------------|-------------------------|
Gb|------------------------|--------------------------|-------------------------|
Db|---------------7--9--7~-|-(7\)----------7--9--9b10-|----9b10---9b10r--7------|
Ab|-----------/9~----------|-----------/9-------------|---------------------10--|
Db|-12\--------------------|--------------------------|-------------------------|

Eb|------------------------|-----------------------|--------------------------|
Bb|------------------------|-----------------------|--------------------------|
Gb|------------------------|-----------------------|--------------------------|
Db|-7b9---7b9---7b9r----7--|--------------7--9--7~-|-(7\)----------7--9--9b10-|
Ab|------------------10----|-9~--------9-----------|-----------/9-------------|
Db|------------------------|-----------------------|--------------------------|

Eb|-------------------------|------------------------|--------------------------|
Bb|-------------------------|------------------------|--------------10--12--10~-|
Gb|-------------------------|------------------------|----------/11-------------|
Db|----9b10---9b10r--7------|-7b9---7b9---7b9r----7--|--------------------------|
Ab|---------------------10--|------------------10----|-9~-----------------------|
Db|-------------------------|------------------------|--------------------------|

Eb|----------------------------|------------------------|-----------------------------|
Bb|-(10~)---------10--12-12b13-|----12b13--12b13r-10----|-10b12--10b12--10b12r----10--|
Gb|-----------/11--------------|---------------------12-|----------------------12-----|
Db|----------------------------|------------------------|-----------------------------|
Ab|----------------------------|------------------------|-----------------------------|
Db|----------------------------|------------------------|-----------------------------|

Eb|----------------------------|------------------------|--------------------------------|
Bb|--------------------7-------|------------------------|------10--12p10----10-12--12b15-|
Gb|-11~-------12p11p9-----9b11___11r9-7--9p7---7~~------|-/11------------11--------------|
Db|----------------------------|-------------9----------|--------------------------------|
Ab|----------------------------|------------------------|--------------------------------|
Db|----------------------------|------------------------|--------------------------------|

Eb|---------------------------------|-------------------------|
Bb|-pb15r12-pb15r12-pb15r12-pb15r12-|-/15~~~~~~~~~\-----------|
Gb|---------------------------------|-------------------------|
Db|---------------------------------|-------------------------|
Ab|---------------------------------|-------------------------|
Db|---------------------------------|-------------------------|



[Verse 2]

   play this 2x
Eb|-------------------------|-------------------------|-------------------------|-------------------------|
Bb|-------------------------|-------------------------|-------------------------|-------------------------|
Gb|-------7-----7-----7--7--|-------------------------|-------5-----5-----5--5--|-------------------------|
Db|-------7-----7-----7--7--|-------7-----7-----7--7--|-------5-----5-----5--5--|-------5-----------------|
Ab|-------5-----5-----5--5--|-------7-----7-----7--7--|-3--3--3--3--3--3--3--3--|-------5-----5--3--5--3--|
Db|-0--0--0--0--0--0--0--0--|-7--7--7--7--7--7--7--7--|-------------------------|-5--5--5--5--5--3--5--3--|

Eb|-------------------------|-------------------------|-------------------------|------------------------|
Bb|-------------------------|-------------------------|-------------------------|------------------------|
Gb|-------7-----7-----7--7--|-------------------------|-------5-----5-----5--5--|------------------------|
Db|-------7-----7-----7--7--|-------7-----7-----7--7--|-------5-----5-----5--5--|-------2----------------|
Ab|-------5-----5-----5--5--|-------7-----7-----7--7--|-3--3--3--3--3--3--3--3--|-------2-----2p0--2p0---|
Db|-0--0--0--0--0--0--0--0--|-7--7--7--7--7--7--7--7--|-------------------------|-2--2--2--2--2p0--2p0---|



[Verse 2 Wah Part]

Eb|------------------|-------------------------|----------------|------------------------|
Bb|------------------|-------------------------|----------------|------------------------|
Gb|------------------|-----9b--9b--7-----7--9--|-7--------------|-------7--9b10-9--7-----|
Db|------------------|----------------9--------|----------------|----9----------------9--|
Ab|------------------|-------------------------|----------------|------------------------|
Db|------------------|-------------------------|----------------|------------------------|

Eb|------------------|---------------------------|----------------|--------------------------|
Bb|------------------|---------------------------|----------------|--------------------------|
Gb|-9b11-------------|----9b10-9--7--9-----7--9--|-7~-------------|--------7-----7--9--7-----|
Db|------------------|------------------9--------|----------------|----7h9---7h9----------9--|
Ab|------------------|---------------------------|----------------|--------------------------|
Db|------------------|---------------------------|----------------|--------------------------|

Eb|------------------|-------------------------|----------------|------------------------|
Bb|------------------|-------------------------|----------------|------------------------|
Gb|-7----------------|-----9b10r9--------7-----|-7--------------|----7--9--9b10r9-7h9-7--|
Db|------------------|----------------9-----9--|----------------|------------------------|
Ab|------------------|-------------------------|----------------|------------------------|
Db|------------------|-------------------------|----------------|------------------------|

Eb|------------------|--------------------------|---------------|------------------------|-----|
Bb|------------------|--------------------------|---------------|------------------------|-----|
Gb|-9/11~------------|----------9--9b10--9--7\--|---------------|------------------------|-----|
Db|------------------|--------------------------|---------------|----9\7--7\5--5\4--4----|-----|
Ab|------------------|--------------------------|---------------|---------------------7--|-7~~-|
Db|------------------|--------------------------|---------------|------------------------|-----|



[Prechorus 2]

Eb|-------------------------|-------------------------|-------------------------|
Bb|-------------------------|-------------------------|-------------------------|
Gb|-------------------------|-------------------------|-------------------------|
Db|-2-------------2------5--|-(5)---------5--5--4--0--|-2--------------2-----7--|
Ab|-2-------------2------5--|-(5)---------5--5--4--0--|-2--------------2-----7--|
Db|-2-------------2------5--|-(5)---------5--5--4--0--|-2--------------2-----7--|

Eb|-------------------------|-------------------------|
Bb|-------------------------|-------------------------|
Gb|------------9--11----12~-|-(12~)-------------------| last few notes after A chord 
Db|-(7)---------------------|-------------------------| are 2 guitar parts but can be 
Ab|-(7)--------7--9-----10~-|-(10~)-------------------| played together
Db|-(7)---------------------|-------------------------|



[Final Chorus]
   
Eb|----------------------|-----------------------|------------------------|------------------------|
Bb|----------------------|-----------------------|------------------------|------------------------|
Gb|-7--------------------|-5---------------------|-------7----------------|-4/5--5--4/5--5--4/5----|
Db|-7---------7----------|-5---------5\----------|-x--x--7----7-----------|-4/5--5--4/5--5--4/5----|
Ab|-5---------7----------|-3---------5\----------|-x--x--5----7-----------|-2/3--3--2/3--3--2/3----|
Db|-----------7----------|-----------5\----------|-x--x-------7-----------|------------------------|

Eb|----------------------|-----------------------|------------------------|----------------------|
Bb|----------------------|-----------------------|------------------------|----------------------|
Gb|-7--------------------|-5---------------------|-------7----------------|-4/5--5--4/5--5--4/5--|
Db|-7---------7----------|-5---------5\----------|-x--x--7----7-----------|-4/5--5--4/5--5--4/5--|
Ab|-5---------7----------|-3---------5\----------|-x--x--5----7-----------|-2/3--3--2/3--3--2/3--|
Db|-----------7----------|-----------5\----------|-x--x-------7-----------|----------------------|

Eb|----------------------|
Bb|----------------------|
Gb|-5--4/5--5--4/5--5/7--|
Db|-5--4/5--5--4/5--5/7--|
Ab|-3--2/3--3--2/3--3/5--|
Db|----------------------|



[Outro]

Eb|----------------------|
Bb|----------------------|
Gb|-7--------------------|
Db|-7---------7----------| play 4x
Ab|-5---------7----------|
Db|-----------7----------|


************************************
KEY

| (n) Ringing note from last measure
| h   Hammer-on
| p   Pull-off
| r   Release
| b   Bend
| pb  Pre-bend
| /   Slide up
| \   Slide down
| ~   Vibrato

************************************
Suggest correction
Creating personal tab
Creating personal tab
You can edit any tab online and save it as your Personal.

You can edit, replace or remove any tab part or add personal notes – all changes will be seen only by you.

Personal tabs can be accessed anytime from any device, even offline.
Learn more »
Give kudos to tab author, rate the tab!
1 2 3 4 5
comments
print report bad tab
guest
You may want to rate the tab now too:
select rating
Wanna post a correction for this tab? Suggest correction