Oops, an error
Loading. Please wait.

Video Killed The Radio Star tab

version 1
version 1

Whole song

Interactive

31,270 views 21 this week
2 commentsread comments
1 2 3 4 5
x 15
add to favorites
×
Save as Personal and add changes to this tab that will be seen only by you. Learn more ›
×
You can save this tab as Personal to edit and correct it or add notes. All changes will be seen only by you. Learn more »
launch autoscroll
font size
0
reset
how to read this tab
guitar tuner
edit
Autoscroll
slow
fast
+/-
esc
set tempo
stop
Video Killed the Radio Star(cover)-Presidents of the United States of America
Tabbed by Floating Device

Standard tuning: EADGBE- low to high

song order:
intro        x2
Verse        x2
pre chorus   x2
verse        x2
pre chorus   x3
chorus 
verse        x2
pre chorus   x2
chorus
solo
chorus   
bridge       x4
interlude done with keyboard
breakdown= repeated chorus

Intro
e-|------------------------------------------
B-|------------------------------------------
G-|------------------------------------------
D-|----6-6-6-6-6-6-6-6-6-6-6-6-6-6-6-6-------
A-|----4-4-4-4-4-4-4-4-4-4-4-4-4-4-4-4-------
E-|------------------------------------------
              ^16th notes
              V
Verse
e-|------------------------------------------
B-|------------------------------------------
G-|--------------------6-6-6-6-8-8-8-8-------
D-|----6-6-6-6-8-8-8-8-4-4-4-4-6-6-6-6-------
A-|----4-4-4-4-6-6-6-6-----------------------
E-|------------------------------------------


Pre Chorus

If I was young it didn’t stop you coming through .......ow ow
e-|---------------------------------------
B-|---------------------------------------
G-|---------------------------------------
D-|---------------------------------------
A-|---3-3-3-3-4-4-4-4-6-6-6-6-6-6-6-6-----
E-|---1-1-1-1-2-2-2-2-4-4-4-4-4-4-4-4-----


Chorus
            Video Killed the radio Star         Video Killed the radio star
e-|--------------------------------|-------------------------------  
B-|-------------------------2-2--2-|-------------------------------
G-|-----6-6-6---6-----6-----3-33-3—|-----6-6-6—6-----6—3-33-3------
D-|-----6-6-6---6-----6-----4-44-4—|-----6-6-6—6-----6—4-44-4------
A-|-----4-4-4---4-----4-----4-44-4—|-----4-4-4—4-----4—4-44-4------
E-|-------------------------2-22-2—|-------------------2-22-2------

Bridge
e-|--------------------------------
B-|--------------------------------
G-|--------------------------------
D-|---6-6-6--5-5-5-----------------
A-|---4-4-4--3-3-3--8-8-8--6—6-6---
E-|-----------------6-6-6--4-4-4---

Solo

                           Repeat
e-|---------------------------|--
B-|---------------------------|--
G-|*-------3------------------|-*
D-|*-----3---6-4—--3-4-6------|-*
A-|----4---------4-------4----|--
E-|---------------------------|--

e-|--------------------------------------------------------------------
B-|-------------------------------------------------------------------
G-|-------3----------------------------8-8-10\6/10-6-8---
D-|---3-4-------3-4-6------3-4-6-4-----6-6-8-\4/-8-4-6---
A-|—4---------4----------4-------------------------------------
E-|--------------------------------------------------------------------

====

            
            
Suggest correction
Creating personal tab
Creating personal tab
You can edit any tab online and save it as your Personal.

You can edit, replace or remove any tab part or add personal notes – all changes will be seen only by you.

Personal tabs can be accessed anytime from any device, even offline.
Learn more »
comments
print report bad tab
2 comments total.
-1 reply
cichy_mati 41 Jul 01, 2008 05:00 AM

intro is ok

0 reply
GenarroG 31 Oct 06, 2013 10:30 PM

Easiest way to play this - and play along with POTUS is to tune down 1/2 step and drop the Eb to a Db

INTRO:
e-|------------------------------------------
B-|------------------------------------------
G-|--------7-----7-----7-----7-----7-----7---
D-|----7-7-7-7-7-7-7-7-7-7-7-7-7-7-7-7-7-7---
A-|----5-5-5-5-5-5-5-5-5-5-5-5-5-5-5-5-5-5---
E-|------------------------------------------

VERSE 1
e-|----------------------------------------------------------
B-|----------------------------------------------------------
G-|----------------------------------------------------------
D-|----7-7-----------------7-7-------------------------------
A-|----5-5--2-2--5-5--7-7--5-5--2-2--5-5--7-7--4-4--5-5--7-7-
E-|---------2-2--5-5--7-7-------2-2--5-5--7-7--4-4--5-5--7-7-

e-|---------------
B-|---------------
G-|---------------
D-|---------------
A-|-4-4--5-5--7-7-
E-|-4-4--5-5--7-7-

VERSE 2
e-|----------------------------------------------------------
B-|----------------------------------------------------------
G-|----------------------------------------------------------
D-|----7-7-----------------7-7-------------------------------
A-|----5-5--2-2--5-5--7-7--5-5--2-2--5-5--7-7--4-4--5-5--7-7-
E-|---------2-2--5-5--7-7-------2-2--5-5--7-7--4-4--5-5--7-7-

e-|-------------------------------
B-|-------------------------------
G-|-------------------------------
D-|-------------------------------
A-|-4-4--5-5--7-7--4-4--5-5--7-7--
E-|-4-4--5-5--7-7--4-4--5-5--7-7--

CHORUS
e-|----------------------------------------------------------
B-|----------------------------------------------------------
G-|----------------------------------------------------------
D-|----7-7--7-7--7---------------7-7--7-7--7-----------------
A-|----5-5--5-5--5--5-5--5-5--5--5-5--5-5--5--5-5--5-5--5----
E-|-----------------5-5--5-5--5---------------5-5--5-5--5----

BRIDGE (in my mind and in my car)
e-|----------------------------------------------------------
B-|----------------3--------------3---3-3-3----3--3-3-3----3-
G-|----------------4--------------4---3-3-3----4--3-3-3----4-
D-|----7-7--7-7--4-4--7-7--7-7--4-4---3-3-3--4-4--3-3-3--4-4-
A-|----5-5--4-4--2-2--5-5--4-4--2-2----------2-2---------2-2-
E-|----------------------------------------------------------

SOLO
e-|-----------------------------------------------------------
B-|-----------------------------------------------------------
G-|--------------------------------------------------------7^-
D-|----7/9-7-5-4-5-7--------7/9-7-5-4^---------7/9-7-5-4/5/7----
A-|--5--------------4-----5-------------5----5------------------
E-|-5-------------------5------------------5--------------------

4^ strike then bend up and down 3x

SOLO
e-|--------------------------------------------
B-|--------------------------------------------
G-|--------------------------------------------
D-|----5--/9----0--/7-----5-7-5----------------
A-|--5--------0---------5-==------7-9-5-9-5-7--
E-|-5--------0---------5---==-----7-9-5-9-5-7--

guest
Wanna post a correction for this tab? Suggest correction