Oops, an error
Loading. Please wait.

Volcano bass

version 2
version 2

Whole song

Interactive

55 views 1 this week
1 commentread comment
1 2 3 4 5
1 last vote to show rating
add to favorites
×
Save as Personal and add changes to this tab that will be seen only by you. Learn more ›
×
You can save this tab as Personal to edit and correct it or add notes. All changes will be seen only by you. Learn more »
launch autoscroll
font size
0
reset
guitar tuner
edit
Autoscroll
slow
fast
+/-
esc
set tempo
stop
Author
Figured this rockin' rhythm could use a better tab. Enjoy!


************************************
| x   Dead note
| h   Hammer-on
| p   Pull-off
| /   Slide up
| ~   Vibrato
************************************

KEY OF D#

[Intro]

Pretty sure there are hammer on and pull offs on the A string. 
The choice and rhythm is up to you. 

G|---------------------|
D|----------4-4--------|
A|6-6-6-6-4-----4-6----| x3
E|---------------------|

G|-----------------------8~-8-8-------8--|
D|----------4-4--------------------------|
A|6-6-6-6-4-----4/6~-6-6--------6-6-6----| x1
E|---------------------------------------|


[Verse] (0:17)
                  (10s)         
G|-------------------------|
D|-------6x66xx-10x1010xx--|
A|6x66xx-------------------| x5
E|-------------------------|


[Prechorus/Chorus] (0:41)              
    
G|-----------------------------------------------------------------|
D|----------------6-6-6-6-6-6-6-6-(10)(10)(10)(10)(10)(10)(10)(10)-|
A|6-6-6-6-6-6-6-6--------------------------------------------------| x2
E|-----------------------------------------------------------------|
                             
G|------------------------------------------------------------------|
D|------------------------------------------------------------------|
A|6-6-6-6-6-6-7-7---8-8-8-8-8-8-8-8-8-8-8-8-8-8-8-8-(11)(11)(11)(11)| x1
E|------------------------------------------------------------------|

"VOLCANOOOO" (0:57)

(0404 is the turnaround after volcano is sang)
G|---------------------------------------------------------------------------|
D|---------------------------------------------------------------------------|
A|0-4-0-4--6-6-6-6-6-6-7-7-8-8-8-8-8-8-8-8-8-8-8-8-8-8-8-8-(11)(11)(11)(11)--| x2
E|---------------------------------------------------------------------------|


[Post-Chorus Riff] (1:13)

G|------------------------------|
D|-------------------4-4--------|
A|0-4-0-4--6-6-6-6-4-----4-6-6--| x1
E|------------------------------|

G|---------------------|
D|----------4-4--------|
A|6-6-6-6-4-----4-6-6--| x2
E|---------------------|


G|--------------------8~-8-8-------8-----|
D|----------4-4--------------------------|
A|6-6-6-6-4-----4/6~-6-6--------6-6-6----| x1
E|---------------------------------------|


[Verse] (1:32)

KEY CHANGE. MOVE NOTES UP 1 HOLE STEP (D# moves to Bb) 

                 (12s)
G|----------------------------|
D|-------8x88xx--12x1212xx----|
A|8x88xx----------------------| x5
E|----------------------------|

SAME PRECHORUS/CHORUS (STILL in Bb) 
(USE FRETS 6&10 ON E STRING FOR THE TURNAROUND PART INSTEAD OF 1&5 ON THE A STRING)

THEN

SAME POST-CHORUS RIFF (STILL in Bb) 

THEN 


[OUTRO]
(STILL IN Bb) (2:45) 

G|-------------------------|
D|------------6-6-6--------|
A|8-8-8-6-6-6-------6-6-6--| x4
E|-------------------------|


G|------------|
D|------------|
A|8---8-8-8---| 
E|------------|
Suggest correction
Creating personal tab
Creating personal tab
You can edit any tab online and save it as your Personal.

You can edit, replace or remove any tab part or add personal notes – all changes will be seen only by you.

Personal tabs can be accessed anytime from any device, even offline.
Learn more »
Give kudos to tab author, rate the tab!
1 2 3 4 5
comments
print report bad tab
1 comment total.
0 reply
JAStewart 7,264 Jun 24, 2016 08:30 AM

This works as a 4-string arrangement, the real song is on a 2 string

guest
You may want to rate the tab now too:
select rating
Wanna post a correction for this tab? Suggest correction