Oops, an error
Loading. Please wait.

Brass In Pocket Bass Tab

version 1
version 1

Whole song

Interactive

6,464 views 15 this week
no commentswrite comment
1 2 3 4 5
please rate
add to favorites
launch autoscroll
font size
0
reset
guitar tuner
Tab Pro tools
  • play this tab
  • loop segment
  • change instrument
  • show fretboard
  • metronome
×
Best way to learn
"Brass In Pocket"
Autoscroll
slow
fast
+/-
esc
set tempo
stop
Contributor
Brass In Pocket

By Pretenders

In the Style of HepCatz

Bass Tablature

Transcribed by Sweet_n'_Low

*In the key of Ab

**Bass comes in at 0:03.

Got brass, in pocket

G-----------------|-----------------|
D-----------------|-----------------|
A-----------------|-----------------|
E-4-4-4-4-4-4-4-4-|-4-4-4-4-4-4-4-4-|

Got bottle, I'm gonna use it

G-----------------|-----------------|
D-----------------|-----------------|
A-----------------|-----------4-5-6-|
E-4-4-4-4-4-4-4-4-|-4-4-4-4-4-------|

Intention, I feel inventive

G-----------------|-----------------|
D-----------------|-----------------|
A-----------------|-----------------|
E-1-1-1-1-1-1-1-1-|-1-1-1-1-1-1-1-1-|

Gonna make you, make you, make you notice

(Make you notice!)

G-----------------|-----------------|
D-----------------|-1-1-1-1-1-1-1-1-|
A-4-4-4-4-4-4-4-4-|-----------------|
E-----------------|-----------------|

Got motion, restrained emotion

G-----------------|-----------------|
D-----------------|-----------------|
A-----------------|-----------------|
E-4-4-4-4-4-4-4-4-|-4-4-4-4-4-4-4-4-|

Been driving, Detroit leaning

G-----------------|-----------------|
D-----------------|-----------------|
A-----------------|-----------4-5-6-|
E-4-4-4-4-4-4-4-4-|-4-4-4-4-4-------|

No reason, just seems so pleasing

G-----------------|-----------------|
D-----------------|-----------------|
A-----------------|-----------------|
E-1-1-1-1-1-1-1-1-|-1-1-1-1-1-1-1-1-|

Gonna make you, make you, make you notice

(Make you notice!)

G-----------------|-----------------|
D-----------------|-1-1-1-1-1-1-1-1-|
A-4-4-4-4-4-4-4-4-|-----------------|
E-----------------|-----------------|

Gonna use my arms

(Been driving)

G-----------------|----------------|
D-1-1-1-1-1-1-1-1-|----------------|
A-----------------|----------------|
E-----------------|----------------|

Gonna use my legs

(Been driving)

G-----------------|----------------|
D-1-1-1-1-1-1-1-1-|----------------|
A-----------------|----------------|
E-----------------|----------------|

Gonna use my style

(Been driving)

G-----------------|----------------|
D-1-1-1-1-1-1-1-1-|----------------|
A-----------------|----------------|
E-----------------|----------------|

Gonna use my sidestep

(Been driving)

G-----------------|----------------|
D-1-1-1-1-1-1-1-1-|----------------|
A-----------------|----------------|
E-----------------|----------------|

Gonna use my fingers

(Been driving)

G-----------------|----------------|
D-1-1-1-1-1-1-1-1-|----------------|
A-----------------|----------------|
E-----------------|----------------|

Gonna use my, my, my imagination

G-----------------|-----------------|
D-1-1-1-1-1-1-1-1-|-1-1-1-1-1-1-1-1-|
A-----------------|-----------------|
E-----------------|-----------------|

'Cause I gonna make you see

G-----------------|----------------|
D-----------------|----------------|
A-----4-4-----4-4-|-----4-4-----4-4|
E-4-4-----4-4-----|-4-4-----4-4----|

There's nobody else here.

G-----------------|----------------|
D-----------------|----------------|
A-----------------|----------------|
E-1-1-1-1-1-1-1-1-|----------------|

No one like me

G-----------------|----------------|
D-----------------|----------------|
A-----------------|----------------|
E-1-1-1-1-1-1-1-1-|----------------|

I'm special (special), so special (special)

G-----------------|-----------------|
D-----------------|-----------------|
A-4-4-4-4-4-4-4-4-|-4-4-4-4-4-4-4-4-|
E-----------------|-----------------|

I gotta have some of your attention, give it to me!

G-----------------|-----------------|
D-----------------|-----------------|
A-4-4-4-4-4-4-4-4-|-6-6-6-6-6-6-6-6-|
E-----------------|-----------------|

Got rhythm, I can't miss a beat

G-----------------|-----------------|
D-----------------|-----------------|
A-----------------|-----------------|
E-4-4-4-4-4-4-4-4-|-4-4-4-4-4-4-4-4-|

Got new skank, so reet

G-----------------|-----------------|
D-----------------|-----------------|
A-----------------|-----------4-5-6-|
E-4-4-4-4-4-4-4-4-|-4-4-4-4-4-------|

Got something, I'm winking at you

G-----------------|-----------------|
D-----------------|-----------------|
A-----------------|-----------------|
E-1-1-1-1-1-1-1-1-|-1-1-1-1-1-1-1-1-|

Gonna make you, make you, make you notice

(Make you notice!)

G-----------------|-----------------|
D-----------------|-1-1-1-1-1-1-1-1-|
A-4-4-4-4-4-4-4-4-|-----------------|
E-----------------|-----------------|

Gonna use my arms

(Been driving)

G-----------------|----------------|
D-1-1-1-1-1-1-1-1-|----------------|
A-----------------|----------------|
E-----------------|----------------|

Gonna use my legs

(Been driving)

G-----------------|----------------|
D-1-1-1-1-1-1-1-1-|----------------|
A-----------------|----------------|
E-----------------|----------------|

Gonna use my style

(Been driving)

G-----------------|----------------|
D-1-1-1-1-1-1-1-1-|----------------|
A-----------------|----------------|
E-----------------|----------------|

Gonna use my sidestep

(Been driving)

G-----------------|----------------|
D-1-1-1-1-1-1-1-1-|----------------|
A-----------------|----------------|
E-----------------|----------------|

Gonna use my fingers

(Been driving)

G-----------------|----------------|
D-1-1-1-1-1-1-1-1-|----------------|
A-----------------|----------------|
E-----------------|----------------|

Gonna use my, my, my imagination

G-----------------|-----------------|
D-1-1-1-1-1-1-1-1-|-1-1-1-1-1-1-1-1-|
A-----------------|-----------------|
E-----------------|-----------------|

'Cause I gonna make you see

G-----------------|----------------|
D-----------------|----------------|
A-----4-4-----4-4-|-----4-4-----4-4|
E-4-4-----4-4-----|-4-4-----4-4----|

There's nobody else here.

G-----------------|----------------|
D-----------------|----------------|
A-----------------|----------------|
E-1-1-1-1-1-1-1-1-|----------------|

No one like me

G-----------------|----------------|
D-----------------|----------------|
A-----------------|----------------|
E-1-1-1-1-1-1-1-1-|----------------|

I'm special (special), so special (special)

G-----------------|-----------------|
D-----------------|-----------------|
A-4-4-4-4-4-4-4-4-|-4-4-4-4-4-4-4-4-|
E-----------------|-----------------|

I gotta have some of your attention, give it to me!

G-----------------|-----------------|
D-----------------|-----------------|
A-4-4-4-4-4-4-4-4-|-6-6-6-6-6-6-6-6-|
E-----------------|-----------------|

'Cause I gonna make you see

G-----------------|----------------|
D-----------------|----------------|
A-----4-4-----4-4-|-----4-4-----4-4|
E-4-4-----4-4-----|-4-4-----4-4----|

There's nobody else here.

G-----------------|----------------|
D-----------------|----------------|
A-----------------|----------------|
E-1-1-1-1-1-1-1-1-|----------------|

No one like me

G-----------------|----------------|
D-----------------|----------------|
A-----------------|----------------|
E-1-1-1-1-1-1-1-1-|----------------|

I'm special (special), so special (special)

G-----------------|-----------------|
D-----------------|-----------------|
A-4-4-4-4-4-4-4-4-|-4-4-4-4-4-4-4-4-|
E-----------------|-----------------|

I gotta have some of your attention, give it to me!

G-----------------|-----------------|
D-----------------|-----------------|
A-4-4-4-4-4-4-4-4-|-6-6-6-6-6-6-6-6-|
E-----------------|-----------------|


G-----------------|-----------------|
D-----------------|-----------------|
A-----------------|-----------4-5-6-|
E-4-4-4-4-4-4-4-4-|-4-4-4-4-4-------|

(Oh oh oh)

G-----------------|-----------------|
D-----------------|-----------------|
A-----------------|-----------4-5-6-|
E-4-4-4-4-4-4-4-4-|-4-4-4-4-4-------|

(Ooh oh)

G-----------------|-----------------|
D-----------------|-----------------|
A-----------------|-----------4-5-6-|
E-4-4-4-4-4-4-4-4-|-4-4-4-4-4-------|


G-----------------|-----------------|
D-----------------|-----------------|
A-----------------|---4-5-6---------|
E-4-4-4-4-4-4-4-4-|-4---------------|
comments
We did not receive enough feedback on this tab! Please rate:
print report bad tab
1 2 3 4 5
I want to post or [tab]
guest
You may want to rate the tab now too:
select rating
Please do not post tabs as comments. Select "correction" instead!