Oops, an error
Loading. Please wait.

Dont Get Me Wrong bass

version 1
version 1

Whole song

Interactive

1,674 views 3 this week
1 commentread comment
1 2 3 4 5
3 more votes to show rating
add to favorites
×
Save as Personal and add changes to this tab that will be seen only by you. Learn more ›
×
You can save this tab as Personal to edit and correct it or add notes. All changes will be seen only by you. Learn more »
launch autoscroll
font size
0
reset
guitar tuner
edit
Autoscroll
slow
fast
+/-
esc
set tempo
stop
Author
Difficulty
Don’t Get Me Wrong
Original version by The Pretenders released in 1986 reaching
Number 10 in UK charts. Original bassist: T.M. Stevens
Tab by bass50611. Welcome to my tab. Hope you like my version
Of this Pretenders Classic Comments is bass254@btinternet.com 

Intro:
G|----------------------------------------------------------|
D|----------------------------------------------------------|
A|-33333333-3333--------------------------55555555-55555555-|
E|---------------22-44-55555555-5555555-7-------------------|

G|-------------------|
D|-------------------|
A|-------------------|
E|-33333333-33333333-|

Verse 1:
G|-------------------------------------------------------------|
D|-------------------------------------------------------------|
A|-33333333-3333---------------------22-44---55555555-55555555-|
E|---------------22-44-55555555-5555---------------------------|

G|-------------------|
D|-------------------|
A|-------------------|
E|-33333333-33333333-|

Verse 2:
G|---------------------------------------------------------------|
D|---------------------------------------------------------------|
A|-33333333-3333----------44----------44-------55555555-55555555-|
E|---------------22-44-55---00-22--55---00-22--------------------|

G|-------------------|
D|-------------------|
A|-------------------|
E|-33333333-33333333-|

Solo 1:
G|---------------------------------------------------------------|
D|---------------------------------------------------------------|
A|-33333333-3333----------44----------44-------55555555-55555555-|
E|---------------22-44-55---00-22--55---00-22--------------------|

G|-------------------|
D|-------------------|
A|-------------------|
E|-33333333-33333333-|

Verse 3:
G|-----------------------------------------------------------------|
D|-----------------------------------------------------------------|
A|-33333333-3333----------44----------44-------55555555-5555-------|
E|---------------22-44-55---00-22--55---00-22----------------00-22-|

G|-------------------|
D|-------------------|
A|-------------------|
E|-33333333-33333333-|

Verse 4:
G|---------------------------------------------------------------|
D|---------------------------------------------------------------|
A|-33333333-3333----------44---------44------5555----------------|
E|---------------22-44-55---00-22-55---00-22------00-22-33333333-|

G|-------------------|
D|-------------------|
A|-33333333-33333333-|
E|-------------------|

Bridge:
G|-----------------------------------------------------------------|
D|-----------------------------------------------------------------|
A|-5------------5------------5------------5------------5-----------|
E|---1-5-3-333----1-5-3-333----1-5-3-333----1-5-3-333----1-5-3-333-|

G|--------------------------------|
D|--------------------------------|
A|-5-----------55555555-----------|
E|---1-5-3-333-----------33333333-|

Solo 2 (Play Solo 2 x2)
G|-----------------------------------------------------------------|
D|-----------------------------------------------------------------|
A|-33-------00---33--------------44-----------44-------55-------22-|
E|----00-33--------00-22-44---55---00-22---55---00-22-----22-55----|

G|------------------------2------------2---|
D|------------------22-55--52----22-55--52-|
A|-55-------22---33------------33----------|
E|----22-55--------------------------------|

Verse 6:
   .     .       .      .      .    .      .    
G|-------------------------------------------------------|
D|-------------------------------------------------------|
A|-3-----3---------------------5----5----5----5----------|
E|------3----0-3-5----3-5----7----7--------3----33333333-|

Verse 7:
G|-----------------------------------------------------------------|
D|-----------------------------------------------------------------|
A|-33-------00---33--------------44-----------44-------55-------22-|
E|----00-33--------00-22-44---55---00-22---55---00-22-----22-55----|

G|----------|
D|----------|
A|----------|
E|-33333333-|

Outro:
G|---------------------------------------------------------------|
D|---------------------------------------------------------------|
A|----44-----------22-33-44---55------22-----------------44------|
E|-55---00-22---55---------------22-55-----33333333---55---00-22-|

G|-----------------------------|
D|-----------------------------|
A|----44-----------44----------|
E|-55---00-22---55---00-22---5-|

Suggest correction
Creating personal tab
Creating personal tab
You can edit any tab online and save it as your Personal.

You can edit, replace or remove any tab part or add personal notes – all changes will be seen only by you.

Personal tabs can be accessed anytime from any device, even offline.
Learn more »
Give kudos to tab author, rate the tab!
1 2 3 4 5
comments
print report bad tab
1 comment total.
0 reply
bass50611 12,415 May 07, 2016 02:37 AM

May 8th 2026 much needed upgrade on my tab. Had my ears cleaned out...can hear much better now!!!!!!...........lolol

guest
You may want to rate the tab now too:
select rating
Wanna post a correction for this tab? Suggest correction