Oops, an error
Loading. Please wait.

Dont Get Me Wrong chords

version 4
version 4

Whole song

  • The chords are tweeked above (and some of the corr... Show more
  • Complete and well-aligned chords / tab for basic lick.

Interactive

1,312 views 36 this week
1 commentread comment
1 2 3 4 5
x 8
add to favorites
×
Save as Personal and add changes to this tab that will be seen only by you. Learn more ›
×
You can save this tab as Personal to edit and correct it or add notes. All changes will be seen only by you. Learn more »
launch autoscroll
font size
0
reset
transpose
0
reset
simplify chords
display chords
guitar tuner
edit
Autoscroll
slow
fast
+/-
esc
set tempo
stop
Author
maguri [tm] 32,118
About this tab version
Complete and well-aligned chords / tab for basic lick. Was this info helpful? Yes No
Strumming
There is no strumming pattern for this song yet. and get +5 IQ
---------------------------------------------------------------------------
                Don't Get Me Wrong – The Pretenders
---------------------------------------------------------------------------
Tabbed by: maguri
Tuning: Standard

The Pretenders 
Don't Get Me Wrong (1986)
(Chrissie Hynde)

From: "Get Close"

---------------------------------------------------------------------------
CHORDS

          E-A-D-G-B-e
Gsus4     3-x-0-0-1-3
D7sus4/G  3-x-0-2-1-3

---------------------------------------------------------------------------

LICK (palm mute)
  C
  1 + 2 + 3 + 4 +  1 + 2 + 3 + 4 +  1 + 2 + 3 + 4 +  1 + 2 + 3 + 4 +
e|----------------|----------------|----------------|----------------|
B|----------------|----------------|----------------|----------------|
G|--5-445---5-4454|----------------|----------------|----------------|
D|--5-555---5-5555|-------%--------|--------%-------|-------%--------|
A|----------------|----------------|----------------|----------------|
E|----------------|----------------|----------------|----------------|
  Am7
  1 + 2 + 3 + 4 +  1 + 2 + 3 + 4 +  1 + 2 + 3 + 4 +  1 + 2 + 3 + 4 +
e|----------------|----------------|----------------|----------------|
B|----------------|----------------|----------------|----------------|
G|--5-445---5-4454|----------------|----------------|----------------|
D|--5-555---5-5555|-------%--------|--------%-------|-------%--------|
A|----------------|----------------|----------------|----------------|
E|----------------|----------------|----------------|----------------|
  Dm7
  1 + 2 + 3 + 4 +  1 + 2 + 3 + 4 +  1 + 2 + 3 + 4 +  1 + 2 + 3 + 4 +
e|----------------|----------------|----------------|----------------|
B|----------------|----------------|----------------|----------------|
G|--5-445---5-4454|----------------|----------------|----------------|
D|--5-555---5-5555|-------%--------|--------%-------|-------%--------|
A|----------------|----------------|----------------|----------------|
E|----------------|----------------|----------------|----------------|
  Gsus4
  1 + 2 + 3 + 4 +  1 + 2 + 3 + 4 +  1 + 2 + 3 + 4 +  1 + 2 + 3 + 4 +
e|----------------|----------------|----------------|----------------|
B|----------------|----------------|----------------|----------------|
G|----------------|----------------|----------------|----------------|
D|--7-557---7-557-|--------&-------|-------&--------|--------%-------|
A|--5-555---5-555-|----------------|----------------|----------------|
E|----------------|----------------|----------------|----------------|


OR included into acoustic strumming
  C
  1 + 2 + 3 + 4 +  1 + 2 + 3 + 4 +  1 + 2 + 3 + 4 +  1 + 2 + 3 + 4 +
e|----------------|----------------|----------------|----------------|
B|----1---0-0-1---|----------------|----------------|----------------|
G|----0---0-0-0---|----------------|----------------|----------------|
D|----2---2-2-2---|-------%--------|--------%-------|-------%--------|
A|3---------------|----------------|----------------|----------------|
E|----------------|----------------|----------------|----------------|
  Am7
  1 + 2 + 3 + 4 +  1 + 2 + 3 + 4 +  1 + 2 + 3 + 4 +  1 + 2 + 3 + 4 +
e|----------------|----------------|----------------|----------------|
B|----1---0-0-1---|----------------|----------------|----------------|
G|----0---0-0-0---|----------------|----------------|----------------|
D|----2---2-2-2---|-------%--------|--------%-------|-------%--------|
A|0---------------|----------------|----------------|----------------|
E|----------------|----------------|----------------|----------------|
  Dm7
  1 + 2 + 3 + 4 +  1 + 2 + 3 + 4 +  1 + 2 + 3 + 4 +  1 + 2 + 3 + 4 +
e|----1---1-1-1---|----------------|----------------|----------------|
B|----1---0-0-1---|----------------|----------------|----------------|
G|----2---2-2-2---|----------------|----------------|----------------|
D|0---------------|-------%--------|--------%-------|-------%--------|
A|----------------|----------------|----------------|----------------|
E|----------------|----------------|----------------|----------------|
  Gsus4
  1 + 2 + 3 + 4 +  1 + 2 + 3 + 4 +  1 + 2 + 3 + 4 +  1 + 2 + 3 + 4 +
e|----3---3-3-3---|----------------|----------------|----------------|
B|----1---1-1-1---|----------------|----------------|----------------|
G|----2---0-0-2---|----------------|----------------|----------------|
D|----0---0-0-0---|--------&-------|-------&--------|--------%-------|
A|----------------|----------------|----------------|----------------|
E|3---------------|----------------|----------------|----------------|

---------------------------------------------------------------------------

INTRO
| C | % | % | % |
| Am7 | % | % | % |
| Dm7 | % | % | % |
| Gsus4 | % | % | % |


VERSE
             C
Don't get me wrong
                       Am7
If I'm looking kind of dazzled
      Dm7
I see neon lights
                  Gsus4
Whenever you walk by


VERSE
             C
Don't get me wrong
                     Am7
If you say hello and I take a ride
                     Dm7
Upon a sea where the mystic moon
                  Gsus4
Is playing havoc with the tide
            [ C ]
Don't get me wrong


INTERLUDE
| C | % | % | % |
| Am7 | % | % | % |
| Dm7 | % | % | % |
| Gsus4 | % | % | % |


VERSE
             C
Don't get me wrong
                    Am7
If I'm acting so distracted
                       Dm7
I'm thinking about the fireworks
                     Gsus4
That go off when you smile


VERSE
             C
Don't get me wrong
                        Am7
If I split like light refracted
               | Dm7 | % |
I'm only off to wander
G                 | C | % | % | % |
  Across a moonlit mile


MIDDLE 8
Dm7       G
Once in a while
Dm7        G
Two people meet
Dm7           G
Seemingly for no reason
          Dm7         G
They just pass on the street
Dm7      G        
Suddenly thunder
Dm7          G
Showers everywhere
D7sus4/G  G         D7sus4/G    G
Who can explain the thunder and rain
            D7sus4/G         G   [ C ]
But there's something in the ai - air


SOLO
| C | % | % | % |
| Am7 | % | % | % |
| Dm7 | % | % | % |
| Gsus4 | % | % | % |

| C | % | % | % |
| Am7 | % | % | % |
| Dm7 | % | % | % |
| Gsus4 | % | % | % |


VERSE
             C
Don't get me wrong
                      Am7
If I come and go like fashion
                   Dm7
I might be great tomorrow
                   Gsus4
But hopeless yesterday


VERSE (variation)
             C
Don't get me wrong
                         Am7
If I fall in the mode of passion
                Dm7
It might be unbelievable
G                     | Am | % | % | 
  But let's not say so long
   Am               Dm7
It might just be fantastic
G             [ Am ]
  Don't get me wrong


CODA
| Am | % |
| Am | % |
| Am | % | Am


            
            
Suggest correction
Creating personal tab
Creating personal tab
You can edit any tab online and save it as your Personal.

You can edit, replace or remove any tab part or add personal notes – all changes will be seen only by you.

Personal tabs can be accessed anytime from any device, even offline.
Learn more »
comments
print report bad tab
1 comment total.
0 reply
Gitarded 67 Dec 05, 2015 04:01 PM

Nailed it, nice tab. Nice doubling up on the riff for a second guitar and the variation in the last verse.

guest
You may want to rate the tab now too:
select rating
Wanna post a correction for this tab? Suggest correction