Oops, an error
Loading. Please wait.

Holy Commotion Chords

100 views 18 this week
1 commentread comment
1 2 3 4 5
x 3
add to favorites
launch autoscroll
font size
0
reset
transpose
0
reset
simplify chords
display chords
guitar tuner
Autoscroll
slow
fast
+/-
esc
set tempo
stop
Help us to improve Ultimate-Guitar.com Take our survey!
×
Author
Difficulty
Strumming
Verse 136 bpm
1
&
2
&
3
&
4
&
Play
Is this strumming pattern correct? Yes No
No Capo

[Intro]
C C Am Ab 
C C Am Ab 

e|---8-----5------------------------------------------|
B|-------8---5--8---5---------------------------------|
G|----------------7---5--7---5--7----5----------------|
D|-------------------------7-------7---7--------------|
A|----------------------------------------------------|
E|----------------------------------------------------| x2
[Verse]
C                     Am    
Ah ah ah a mass of devotion
C                       Am                         
Ah ah ah and a Holy commotion
        F                                 Am       
I just want, I want, I want, to see your face
        F                                    G     
I just want, I want, I want to change your place 
 G6        G
Lift your bill


[Solo]
e|---8-----5------------------------------------------|
B|-------8---5--8---5---------------------------------|
G|----------------7---5--7---5--7----5----------------|
D|-------------------------7-------7---7--------------|
A|----------------------------------------------------|
E|----------------------------------------------------| x2


[Verse]
C                     Am                          
Ah ah ah a mass of devotion
C                       Am                       
Ah ah ah and a Holy commotion
        F                                 Am       
I just want, I want, I want to lead the blind
        F                                 G      
I just want, I want, I want to free your mind
 G6      G                                               
Come on baby


[Chorus]
C                      Am                           
Ah ah ah a mass of devotion
C                       Am                         
Ah ah ah and a Holy commotion
        F                               Am         
I just want, I want, I want to see the light
        F                                 G       
I just want, I want, I want to dance all night
    G6    G                                            
Oh be my baby


[Solo]
e|---8-----5------------------------------------------|
B|-------8---5--8---5---------------------------------|
G|----------------7---5--7---5--7----5----------------|
D|-------------------------7-------7---7--------------|
A|----------------------------------------------------|
E|----------------------------------------------------| x2 


[Refrain]
          C                                      
When the walls come tumbling down
         Am                                       
And the love drags all around
         C                                       
And the dogs of war come around no more
         Am                                       
No more rape or torture or mutilation
     F                                          
One love one way
Am                                                
One humanity
     F                                          
One way one love
       Am                                                
One humanity


[Outro]
C               Am                           
Ah ah aaahhh devotion devotion
C            Am                           
Ah ah aaahhh  listen Come on
C            Am 
Ah ah aaahhh Uhhhhhhhhhh
C            Am 
Ah ah aaahhh Uhhhhhhhhh
C            Am 
Ah ah aaahhh   listen  
C            Am 
Ah ah aaahhh , devotion, devotion, devotion ...


Suggest correction
Give kudos to tab author, rate the tab!
1 2 3 4 5
comments
print report bad tab
1 comment total.
0 reply
schoben 2,628 Oct 28, 2016 07:57 PM

great tab for this brand new song! Sounds very 80s to me..

guest
You may want to rate the tab now too:
select rating
Wanna post a correction for this tab? Suggest correction