Oops, an error
Loading. Please wait.

I Go To Sleep chords

version 2
version 2

Whole song

2,410 views 15 this week
no commentswrite comment
1 2 3 4 5
x 10
add to favorites
×
Save as Personal and add changes to this tab that will be seen only by you. Learn more ›
×
You can save this tab as Personal to edit and correct it or add notes. All changes will be seen only by you. Learn more »
launch autoscroll
font size
0
reset
transpose
0
reset
simplify chords
display chords
guitar tuner
edit
Autoscroll
slow
fast
+/-
esc
set tempo
stop
Strumming
There is no strumming pattern for this song yet. and get +5 IQ
Artist: The Pretenders
Song: I go to sleep
Composer: Ray Davies
Tabbed by: DJ
11th Feb 2013

Time signature: 6/8 time

'The Isle of view' live acoustic version - No capo
'Pretenders II' version - CAPO: 2nd fret (Sounds in key of D)

Intro, break & coda chords:       Verse chords:
Amadd9 = x07500                   C    = x32010   Am7 = x02010
Cmaj7  = x35500                   Em/B = x22000   G/B = x2xxxx
G/B    = x2xxxx                   Am   = x02210

Chorus chords:                    Bridge chords:
Em  = x79987                      Ab = 466544
Bm  = 799777                      Eb = x68886
Am  = 577555                      G  = 355433
Am7 = 575555

**************************************************************

[Intro]
      Cmaj7       Amadd9
e |------------|------0-0-0---0-0-0--|--0-0------------|
B |------------|-----0--0-0---0-0-0--|--0-0------------|
G |------------|----5---5-5---5-5-5--|--5-5---------0--|
D |---------5--|---7-----------------|------------2----|
A |--0--3-7----|--0------------------|------0---3------|
E |------------|---------------------|-----------------|

    Cmaj7
e |------0-0-0---0-0-0--|--0-0-0-----------|
B |-----0--0-0---0-0-0--|--0-0-0-----------|
G |----5---5-5---5-5-5--|--5-5-5-----------|
D |---5-----------------|---------------5--|
A |--3------------------|---------0-3-7----|
E |---------------------|------------------|

    Amadd9                            G/B
e |------0-0-0---0-0-0--|--0-0-0----------|
B |-----0--0-0---0-0-0--|--0-0-0----------|
G |----5---5-5---5-5-5--|--5-5-5----------|
D |---7-----------------|-----------------|
A |--0------------------|-----------0--2--|
E |---------------------|-----------------|


[Verse 1]
 C                      Em/B                   Am   Am7  Am
When I look up from my pillow I dream you are there with me,
Am  G/B   C
        Though you are far away,
Em/B                       Am  Am7 Am
  I know you'll always be near to  me!


[Chorus]
          Em     Bm             Am                     Am7  Am
I go to sleep, sleep, and i - magine that you're there with me,
          Em     Bm             Am                     Am7  Am
I go to sleep, sleep, and i - magine that you're there with me!


[Verse 2]
 Amadd9                   G/B
| /_/_/ /_/_/ | /_/_/ /_/_/ |

C                     Em/B                  Am  Am7 Am
I look around me, and feel you are ever so close to me,
Am G/B  C                           Em/B
       Each tear that flows from my eyes
                        Am  Am7 Am
Brings back memories of you to  me!


[Chorus]
          Em     Bm             Am                     Am7  Am
I go to sleep, sleep, and i - magine that you're there with me,
          Em     Bm             Am                     Am7  Am
I go to sleep, sleep, and i - magine that you're there with me!


[Bridge]
Ab                                                Eb
I was wrong, I will cry, I will love you till the day I die,
                                    Ab                      G
You are all, you alone, and no one else, you were meant for me!


[Verse 1]
 Amadd9                  G/B
| /_/_/ /_/_/ | /_/_/ /_/_/ |

  C                      Em/B                   Am   Am7  Am
When morning comes again, I have the loneliness you left me,
Am G/B  C                        Em/B
       Each day drags by until, finally,
                Am   Am7 Am
Nightime des - cends on  me!


[Chorus]
          Em     Bm             Am                     Am7  Am
I go to sleep, sleep, and i - magine that you're there with me,
          Em     Bm             Am                     Am7  Am
I go to sleep, sleep, and i - magine that you're there with me!


[Coda]
      Cmaj7       Amadd9
e |------------|------0-0-0---0-0-0--|--0-0------------|
B |------------|-----0--0-0---0-0-0--|--0-0------------|
G |------------|----5---5-5---5-5-5--|--5-5---------0--|
D |---------5--|---7-----------------|------------2----|
A |--0--3-7----|--0------------------|------0---3------|
E |------------|---------------------|-----------------|

    Cmaj7
e |------0-0-0---0-0-0--|--0-0-0-----------|
B |-----0--0-0---0-0-0--|--0-0-0-----------|
G |----5---5-5---5-5-5--|--5-5-5-----------|
D |---5-----------------|---------------5--|
A |--3------------------|---------0-3-7----|
E |---------------------|------------------|

    Amadd9                            G/B     C
e |------0-0-0---0-0-0--|--0-0-0----------|---0---||
B |-----0--0-0---0-0-0--|--0-0-0----------|---1---||
G |----5---5-5---5-5-5--|--5-5-5----------|---0---||
D |---7-----------------|-----------------|---2---||
A |--0------------------|-----------0--2--|---3---||
E |---------------------|-----------------|-------||

            
            
Suggest correction
Creating personal tab
Creating personal tab
You can edit any tab online and save it as your Personal.

You can edit, replace or remove any tab part or add personal notes – all changes will be seen only by you.

Personal tabs can be accessed anytime from any device, even offline.
Learn more »
comments
print report bad tab
guest
You may want to rate the tab now too:
select rating
Wanna post a correction for this tab? Suggest correction