Oops, an error
Loading. Please wait.

Mystery Achievement bass

version 2
version 2

Whole song

3,134 views 9 this week
2 commentsread comments
1 2 3 4 5
1 last vote to show rating
add to favorites
×
Save as Personal and add changes to this tab that will be seen only by you. Learn more ›
×
You can save this tab as Personal to edit and correct it or add notes. All changes will be seen only by you. Learn more »
launch autoscroll
font size
0
reset
guitar tuner
edit
Autoscroll
slow
fast
+/-
esc
set tempo
stop
Author
Difficulty
Mystery Achievement
The Pretenders
Pretenders
Tuning: Standard

Intro/main riff:
G|---------------------------|
D|-------------------------1-| Riff ends with: 
A|--3-3-3-1---1--------1-3---|
E|----------4----4-4-4-------|

G|-----------------------------|
D|-----------------------------|
A|-3-3-3-1---------------------|
E|---------4--1-1-3-3-4-4-6-6--|


Chorus (at 1:23):
G|-------------------|
D|-------------------|
A|-4-4-4-4-----------| 
E|---------*-2-2-2-2-| *= occassional added note of |-1-| here

Chorus ends with (at 1:44):
G|---------------------------------------|
D|---------------------------------------|
A|--44444444-----------------------------|
E|-----------22222222-11111111-2222-4444-|  With those being 1, not 11

Back to main riff, then chorus

At around 2:48 in the song, the second chorus, another riff is added in:
G|---------|
D|---------|
A|---------|
E|-1-2-4-2-|

At 3:59 the riff slightly changes again to:
G|----------------------------|
D|----------------------------|
A|--3-3-3-1-------------------|
E|----------4-1-1-3-3-4-4-6-6-|

and ends with (at 4:23):
G|--------------------------------|
D|--------------------------------|
A|--------------------------------|
E|--6-6-6-6-6-6-6-6-6-6-6-6-6-6-6-| which is that note 15 times

The ending of the song mixes up some of the above riffs, and ends with
the riff at 3:59. That should be the whole thing, just listen to the song
and you'll get er goin!

            
            
Suggest correction
Creating personal tab
Creating personal tab
You can edit any tab online and save it as your Personal.

You can edit, replace or remove any tab part or add personal notes – all changes will be seen only by you.

Personal tabs can be accessed anytime from any device, even offline.
Learn more »
Give kudos to tab author, rate the tab!
1 2 3 4 5
comments
print report bad tab
2 comments total.
0 reply
erind99 10 Jun 01, 2016 05:09 PM

Pretty sure you are a half step flat. Also not sure about the other parts you list near the end.

0 reply
erind99 10 Jun 01, 2016 05:09 PM

Pretty sure you are a half step flat there dude.

guest
You may want to rate the tab now too:
select rating
Wanna post a correction for this tab? Suggest correction