Oops, an error
Loading. Please wait.

Blonde Rebellion Tab

1,475 views 1 this week
no commentswrite comment
1 2 3 4 5
please rate
add to favorites
launch autoscroll
font size
0
reset
how to read this tab
guitar tuner
Autoscroll
slow
fast
+/-
esc
set tempo
stop
Help us to improve Ultimate-Guitar.com Take our survey!
×
Difficulty
Tuning
novice
D A D G B E
RIFF A (0:00 - 0:09) - x3

-----------------------------|
-----------------------------|
-----------------------------|
77777-10-22222-10------------|
77777-10-22222-10------------|
77777-10-22222-10------------|

RIFF B (0:09 - 0:11)

--------------------------|
--------------------------|
--------------------------|
6666666655555555----------|
6666666655555555----------|
6666666655555555----------|

RIFF C (0:11 - 0:20) - x3

----------------------------|
----------------------------|
----------------------------|
----------------------------|
----------------------------|
7777-10101010-2222-10101010-|
.... . . . .  .... . . . .

0:20 - 0:22 play riff B

0:23 - 0:32 play riff C three times without using palm mute

0:33 - 0:35 play riff B

RIFF D - CHORUS (0:36 - 0:46)

----------------------------------------|
----------------------------------------|
----------------------------------------|
1010101010101010222222227777777766666666
1010101010101010222222227777777766666666
1010101010101010222222227777777766666666

0:46 - 0:53 play riff A two times

0:59 - 1:06 play riff C three times

1:07 - 1:09 play riff B

1:10 - 1:22 chorus (riff D)

1:22 - 1:33 play riff A four times

RIFF E (1:34 - 1:44 )

---------------------------|
---------------------------|
---------------------------|
3---7---3---7--------------|
3---7---3---7--------------|
3---7---3---7--------------|

1:44 - 1:50 Rhytm guitar plays riff A two times, lead guitar plays:

----------------------------------------------------------------------------------|
13-13-13-13-13--17-12-12-12-12-12-12-12-12-13-13-13-13-13-13-13-13-12-12-12-12-12-|
----------------------------------------------------------------------------------|
----------------------------------------------------------------------------------|
----------------------------------------------------------------------------------|
----------------------------------------------------------------------------------|

1:51 - 2:13 play chorus two times

2:14 - 2:23 play riff A three times

final chord:

---
---
---
7--
7--
7--
Suggest correction
What's this?
You can suggest a correction to this tab. Community and Mods will review your correction and vote to approve or reject it.
comments
We did not receive enough feedback on this tab! Please rate:
print report bad tab
1 2 3 4 5
guest
You may want to rate the tab now too:
select rating
Please do not post tabs as comments. Select "correction" instead!