Oops, an error
Loading. Please wait.

Heart tab

434 views 3 this week
no commentswrite comment
1 2 3 4 5
2 more votes to show rating
add to favorites
×
Save as Personal and add changes to this tab that will be seen only by you. Learn more ›
×
You can save this tab as Personal to edit and correct it or add notes. All changes will be seen only by you. Learn more »
launch autoscroll
font size
0
reset
how to read this tab
guitar tuner
edit
Autoscroll
slow
fast
+/-
esc
set tempo
stop
Author
-------------------------------------------------------------------------------
                             HEART - The Pretty Reckless
-------------------------------------------------------------------------------
Tabbed by: bgmermkn1
E-mail:

Tuning: Standard Tuning

This is more for a rhythm guitar because i couldn't understand the chords in the solo, sorry :/ 
(And sorry for my bad english)

Intro and Verse (Play this 6 times for intro and verse):
 
e|---------------------------------------------------------------------------|
B|---------------------------------------------------------------------------|
G|----6-----6-----6----------------------9-----9-----9---9-----9-----9-------| 
D|----6-----6-----6-----7-----7-----7----9-----9-----9---9-----9-----9-------|
A|----4-4-4-4-4-4-4-4---7-----7-----7----7-7-7-7-7-7-7-7-7-7-7-7-7-7-7-7-----|
E|----------------------5-5-5-5-5-5-5-5--------------------------------------|

Chorus (2 times):

e|---------------------------------------------------------------------------|
B|---------------------------------------------------------------------------|
G|----6-6-6-6-6-6-6-6-------------------9-9-9-9-9-9-9-9-9-9-9-9-9-9-9-9------|
D|----6-6-6-6-6-6-6-6--7-7-7-7-7-7-7-7--9-9-9-9-9-9-9-9-9-9-9-9-9-9-9-9------|
A|----4-4-4-4-4-4-4-4--7-7-7-7-7-7-7-7--7-7-7-7-7-7-7-7-7-7-7-7-7-7-7-7------|
E|---------------------5-5-5-5-5-5-5-5---------------------------------------|

Intro and Verse Chords Again

Chorus Again but 4 times

I couldn't understand the solo but when you use the chorus chords it sounds pretty good too

Verse chords 2 times (softly)

Chorus chords 6 times

            
            
Suggest correction
Creating personal tab
Creating personal tab
You can edit any tab online and save it as your Personal.

You can edit, replace or remove any tab part or add personal notes – all changes will be seen only by you.

Personal tabs can be accessed anytime from any device, even offline.
Learn more »
Give kudos to tab author, rate the tab!
1 2 3 4 5
comments
print report bad tab
guest
You may want to rate the tab now too:
select rating
Wanna post a correction for this tab? Suggest correction