Oops, an error
Loading. Please wait.
We have Chord Pro version of Just Tonight.
It's the closest thing you can get to the original song and it has interactive parts. Check out the tab »
×
10,804 views 3 this week
1 commentread comment
1 2 3 4 5
x 8
add to favorites
guitar tuner
Autoscroll
slow
fast
+/-
esc
set tempo
stop
Author
Difficulty
Tuning
File Format
Filesize
Instruments
novice
D# G# C# F# A# D#
.gp5
27 Kb
rhythm_guitars, lead_guitars, percussions
"Just Tonight"
demo version
Play now

or get full version for Free

×
Get full version now!
Learn and play this song
in Tab Pro
Try for free

or get $10 off Welcome Bonus

Get welcome bonus
Get access to Tab Pro version of “Just Tonight”!
Tab Pro is a premium guitar tab service, available on PC, Mac, iOS and Android
TRY FOR FREE
Your download will start in 7 seconds
×
Like this song? We have more! Follow us on Facebook for daily tips, lessons and other guitar-related content.
To download “Just Tonight” Guitar Pro tab click button below
Please note that you must have Guitar Pro software installed on your
computer in order to view this file.
Suggest correction
comments
report bad tab
1 comment total.
+1 reply
Sixxstarr 201 Jul 14, 2014 05:50 PM

One thing I must recommend is doing the normal chord progression with this part
E|--------------------------------------
B|------------------------------------3--0--
G|----------------------0-------------------
D|--------2----------2-----2-------0--------
A|-----2-----2----3--------------------------
E|--0---------------------------3-----------

and instead doing this

E|--------------------------------------------------------
B|--------------------------------------------------------
G|----------------------5---------------------9-----------
D|--------2----------5-----5----------5-------9-----------
A|-----2-----2----3----------------5-----5----7-----------
E|--0---------------------------3-------------------------

it at least sounds just about the same to me and is easier to do...plus it's the same power chords you play for the whole song...regardless 5 stars

guest
You may want to rate the tab now too:
select rating