Oops, an error
Loading. Please wait.

Living In The Storm Tab

178 views 21 this week
no commentswrite comment
1 2 3 4 5
2 more votes to show rating
add to favorites
launch autoscroll
font size
0
reset
how to read this tab
guitar tuner
Autoscroll
slow
fast
+/-
esc
set tempo
stop
Help us to improve Ultimate-Guitar.com Take our survey!
×
Author
Difficulty
Tuning
novice
C# G# C# F# A# D#
About this tab version
I don't know if the tuning is right, but it sounds good to me. Was this info helpful? Yes No
Artist: The Pretty Reckless
Song: Living in The Storm
Tabbed by: Zamo

Tuning: Drop C#

[Intro]

D#|------------------------------------|--------------------------------------|
A#|------------------------------------|--------------------------------------|
F#|-3-3-3-3-3-3--6-6--8-8-8-8-8-8--6-6-|-3-3-3-3-3-3--6-6--8-8-8-8-8-8--6-6---|
C#|-3-3-3-3-3-3--6-6--8-8-8-8-8-8--6-6-|-3-3-3-3-3-3--6-6--8-8-8-8-8-8--6-6---|
G#|-1-1-1-1-1-1--4-4--6-6-6-6-6-6--4-4-|-1-1-1-1-1-1--4-4--6-6-6-6-6-6--4-4---|
C#|------------------------------------|--------------------------------------|
    D U D U D U  D U  D U D U D U  D U   D U D U D U  D U  D U D U D U  D U     

D#|------------------------------------|--------------------------------------|
A#|------------------------------------|--------------------------------------|
F#|-3-3-3-3-3-3--6-6--8-8-8-8-8-8--6-6-|6\5-5-5-5-5-5-5-5-5-5-5-5/6-6-6-------|
C#|-3-3-3-3-3-3--6-6--8-8-8-8-8-8--6-6-|6\5-5-5-5-5-5-5-5-5-5-5-5/6-6-6-------|
G#|-1-1-1-1-1-1--4-4--6-6-6-6-6-6--4-4-|4\3-3-3-3-3-3-3-3-3-3-3-3/4-4-4-------|
C#|------------------------------------|--------------------------------------|
    D U D U D U  D U  D U D U D U  D U  D U D U D U D U D U D U D U D U

This is played 4 times

************************************

| /   Slide up
| \   Slide down
| D   Down
| U   Up

************************************
Suggest correction
Give kudos to tab author, rate the tab!
1 2 3 4 5
comments
print report bad tab
guest
You may want to rate the tab now too:
select rating
Wanna post a correction for this tab? Suggest correction