Oops, an error
Loading. Please wait.

Make Me Wanna Die Chords

version 1
version 1

Acoustic

Whole song

Interactive

33,171 views 90 this week
1 commentread comment
1 2 3 4 5
x 20
add to favorites
launch autoscroll
font size
0
reset
transpose
0
reset
simplify chords
display chords
guitar tuner
Autoscroll
slow
fast
+/-
esc
set tempo
stop
Help us to improve Ultimate-Guitar.com Take our survey!
×
Author
Difficulty
Tuning
intermediate
D# G# C# F# A# D#
----------------------------------------------------------------
|  Artist: The Pretty Reckless                                 |
|    Song: Make Me Wanna Die (KROQ acoustic)                   |
|   Album: Light Me Up                                         |
|    Year: 2010                                                |
|                                                              |
|  Transcribed by: Vicar in a Tutu                             |
|           email: vicar_in_a_tutu@hotmail.co.uk               |
|         website: http://www.myspace.com/mikeoxmorle          |
|                                                              |
|  Date: 11-Feb-2012                                           |
----------------------------------------------------------------

I tabbed this frame by frame from this video:
http://www.youtube.com/watch?v=HH9gcaJjG_U

Tuning:  Eb Ab Db Gb Bb Eb

Chords are relevant to the fret numbers played AFTER down-tuning,
and not the actual root note, since this is the easier for most
guitarists. If you are playing in standard tuning (or on a piano
etc.) then transpose all chords down 1 half-step using the
'Ultimate Guitar' transposer above ^ to be musically accurate.
'F#m' = Fm in standard tuning. Watch/listen to the video for
timing and strumming patterns, its not difficult to figure out.
Lyrics with chords are below.

----------------------------------------------------------------

[Intro] 
optional - not played on acoustic version

Eb|-5---5-----4-5-7-|-5---5-----------|-5-----|
Bb|---7---6-7-------|---7---6-7-5-----|---7---|
Gb|-----------------|-------------7-6-|-------|
Db|-----------------|-----------------|-------|
Ab|-----------------|-----------------|-------|
Eb|-----------------|-----------------|-------|
and/or

Eb|-----------------|-----------------|-------|
Bb|-----------------|-----------------|-------|
Gb|-7---6-----------|-7---6--11-9-7-6-|-7-----|
Db|-7---6---4-6-7-9-|-7---6--11-9-7-6-|-7---2-|
Ab|-5---4---4-6-7-9-|-5---4---9-7-5-4-|-5---2-|
Eb|---------2-4-5-7-|-----------------|-----0-|


[Pre-Verse 1]

Eb|---------0-|---------------|
Bb|------2--1-|---------------|
Gb|------2--0-|------2--4/5/4-|
Db|-4----2--2-|-4----2--4/5/4-|
Ab|-4----0--3-|-4----0--2/3/2-|
Eb|-2---------|-2-------------|
    F#m  A  C   F#m  A  B/C/B


[Verse]

Eb|---------------------------------------|
Bb|---------------------------------------|
Gb|-------------9-----9-----7-----7-----6-|
Db|-4-----7-----9-----9-----7-----7-----6-|
Ab|-4-----7-----7-----6-----5-----4-----4-|
Eb|-2-----5-------------------------------|
    F#m   A     E    E/Eb   D    D/Db   C#

Eb|---------------------------------------------|
Bb|---------------------------------------------|
Gb|-------------9-----9-----7-----7-----6-----6-|
Db|-4-----7-----9-----9-----7-----7-----6-----6-|
Ab|-4-----7-----7-----6-----5-----4-----4-----8-|
Eb|-2-----5-------------------------------------|
    F#m   A     E    E/Eb   D    D/Db   C#   C#2


[Bridge 1]

Eb|---------------------------------|---------------|
Bb|---------------------------------|---------------|
Gb|-7-----6-------------------------|-7-----6-----6-|
Db|-7-----6-----4-----6-----7-----9-|-7-----6-----6-|
Ab|-5-----4-----4-----6-----7-----9-|-5-----4-----8-|
Eb|-------------2-----4-----5-----7-|---------------|
    D     C#    F#m   G#    A     B   D     C#   C#2


[Chorus]

Eb|---------------------|
Bb|---------------------|
Gb|-------2-----4-----6-|
Db|-4-----2-----4-----6-|
Ab|-4-----0-----2-----4-|
Eb|-2-------------------|
    F#m   A     B     C#

Eb|-2-----0-----2-----0----------------------|
Bb|-3-----0-----2-----0----------------------|
Gb|-2-----1-----2-----1-----4-----6--4-------|
Db|-0-----2-----4-----2-----4-----6--4--0--6-|
Ab|-------2-----4-----2-----2-----4--2--0--6-|
Eb|-------0-----2-----0-----------------0--4-|
    D     E     F#m   E     B     C# B  A  G#


[Pre-Verse 2]

Eb|---------0-|-----------|
Bb|------2--1-|-----------|
Gb|------2--0-|------2----|
Db|-4----2--2-|-4----2--2-|
Ab|-4----0--3-|-4----0--2-|
Eb|-2---------|-2-------0-|
    F#m  A  C   F#m  A  E


[Verse 2]


[Bridge 2]

Eb|---------------------------------|---------|
Bb|---------------------------------|---------|
Gb|-7-----6-------------------------|-7-----6-|
Db|-7-----6-----4-----6-----7-----9-|-7-----6-|
Ab|-5-----4-----4-----6-----7-----9-|-5-----4-|
Eb|-------------2-----4-----5-----7-|---------|
    D     C#    F#m   G#    A     B   D     C#

Eb|---------------------|---------------|
Bb|---------------------|---------------|
Gb|-------6-----7-----6-|-7-----6-----6-|
Db|-4-----6-----7-----6-|-7-----6-----6-|
Ab|-4-----4-----5-----4-|-5-----4-----8-|
Eb|-2-------------------|---------------|
    F#m   B     D     C#  D     C#   C#2


[Chorus 2]


[Middle 8]

Eb|-2-----2-----0-----0-|
Bb|-2-----3-----2-----0-|
Gb|-2-----2-----2-----1-|
Db|-4-----0-----2-----2-|
Ab|-4-----------0-----2-|
Eb|-2-----------------0-|
    F#m   D     A     E    x4

Eb|-2-----2-------------|
Bb|-2-----3-------------|
Gb|-2-----2-----4-----6-|
Db|-4-----0-----4-----6-|
Ab|-4-----------2-----4-|
Eb|-2-------------------|
    F#m   D     B     C#


[Chorus 3]

Eb|-2-----0-----2-----0-|
Bb|-3-----0-----2-----0-|
Gb|-2-----1-----2-----1-|
Db|-0-----2-----4-----2-|
Ab|-------2-----4-----2-|
Eb|-------0-----2-----0-|
    D     E     F#m   E    x3

Eb|------------------|
Bb|------------------|
Gb|-4-----6--4-------|
Db|-4-----6--4--0--6-|
Ab|-2-----4--2--0--6-|
Eb|-------------0--4-|
    B     C# B  A  G#


[Outro]

Eb|---------0-|---------0----|
Bb|------2--1-|------2--1----|
Gb|------2--0-|------2--0----|
Db|-4----2--2-|-4----2--2--4-|
Ab|-4----0--3-|-4----0--3--4-|
Eb|-2---------|-2----------2-|
    F#m  A  C   F#m  A  C  F#m

----------------------------------------------------------------

[Pre-Verse]

F#m  A  C
F#m  A  B/C/B


[Verse 1]

F#m      A          E                       E/Eb
Take me, I'm alive, never was a girl with a wicked mind
    D                D/Db             C#
But everything looks better, when the sun goes down
F#m   A           E                 E/Eb
I had everything, opportunities for eternity
    D         D/Db        C#  C#2
and I could belong to the night


[Bridge 1]

     D          C#   F#m G#  A   B
Your eyes, your eyes, I  can see in
     D          C#  C#2
your eyes, your eyes


[Chorus 1]

                  F#m
You make me wanna die
                   A
I'll never be good enough
                  B
You make me wanna die
                   C#
And everything you love,
                    D
will burn up in the light
    E            F#m    E         B
And every time I look inside your eyes

C#  B  A  G#

Make me wanna die

F#m  A  C
F#m  A  E


[Verse 2]

F#m      A              E                             E/Eb
Taste me drink my soul, show me all the things that I shouldn't
           D              D/Db        C#  C#2
know, when there's a blue moon on the rise
F#m   A           E                 E/Eb
I had everything, opportunities for eternity
    D         D/Db        C#  C#2
and I could belong to the night


[Bridge 2]

     D          C#    F#m G#  A   B
Your eyes, your eyes, I   can see in
     D          C#
your eyes, your eyes
F#m B D     C#      D          C#  C#2
 everything in your eyes, your eyes


[Chorus 2]

                  F#m
You make me wanna die
                   A
I'll never be good enough
                  B
You make me wanna die
                   C#
And everything you love,
                    D
will burn up in the light
    E            F#m    E         B
And every time I look inside your eyes (I'm burning in the light)

C#  B  A  G#

Make me wanna die


[Middle 8]

F#m  D  A  E

F#m      D               A        E
 I would die for you, my love, my love
F#m      D               A        E
 I would lie for you, my love, my love (make me wanna die)
F#m      D                 A        E
 I would steal for you, my love, my love (make me wanna die)
F#m      D               B        C#
 I would die for you, my love, my love


[Chorus 3]

                     D
We'll burn up in the light
E            F#m    E         D   E
Every time I look inside your eyes (I'm burning in the light)
F#m    E         D   E
Look inside your eyes (I'm burning in the light)
F#m    E         B
Look inside your eyes

C#  B  A  G#

You make me wanna die


[Outro]

F#m  A  C
F#m  A  C
F#m

----------------------------------------------------------------

The KROQ performance medleys into a few lines of 'Supersonic' by
Oasis at the end - this is optional. Chords for that can be
searched for, or you can work them out yourself!

The 'Le Figaro' acoustic performance is slightly different. Try
this alterative version (Pre-Verse 1 and Verse 1 only) and see
which you prefer.


'Le Figaro' optional variation


[Pre-Verse 1]

Eb|---------0-|---------------|---------0-|
Bb|------2--1-|---------------|------2--1-|
Gb|------2--0-|------2--4/5/4-|------2--0-|
Db|-4----2--2-|-4----2--4/5/4-|-4----2--2-|
Ab|-4----0--3-|-4----0--2/3/2-|-4----0--3-|
Eb|-2---------|-2-------------|-2---------|
    F#m  A  C   F#m  A  B/C/B   F#m  A  C


[Verse 1] 

Eb|------------------------------------------------|
Bb|------------------------------------------------|
Gb|-------------9-----9-----7-----7-----6--4-------|
Db|-4-----7-----9-----9-----7-----7-----6--4--0--6-|
Ab|-4-----7-----7-----6-----5-----4-----4--2--0--6-|
Eb|-2-----5-----------------------------------0--4-|
    F#m   A     E    E/Eb   D    D/Db   C# B  A  G#

Eb|---------------------------------------------|
Bb|---------------------------------------------|
Gb|-------------9-----9-----7-----7-----6-----6-|
Db|-4-----7-----9-----9-----7-----7-----6-----6-|
Ab|-4-----7-----7-----6-----5-----4-----4-----8-|
Eb|-2-----5-------------------------------------|
    F#m   A     E    E/Eb   D    D/Db   C#   C#2 
Suggest correction
comments
print report bad tab
1 comment total.
0 reply
lobino 10 Jan 21, 2014 04:37 PM

finally I found this version! thanks man :D

guest
You may want to rate the tab now too:
select rating
Wanna post a correction for this tab? Suggest correction