Oops, an error
Loading. Please wait.

Make Me Wanna Die Bass Tab

version 1
version 1

Whole song

Interactive

26,333 views 27 this week
1 commentread comment
1 2 3 4 5
2 more votes to show rating
add to favorites
launch autoscroll
font size
0
reset
guitar tuner
Autoscroll
slow
fast
+/-
esc
set tempo
stop
Help us to improve Ultimate-Guitar.com Take our survey!
×
Author
Difficulty
Tuning
intermediate
D A D G B E
I wrote these tabs at a friend's request, they might not be 100% correct. If you think I 
make any changes, drop me a line at: becimarsi@hotmail.co.uk
Not 100% sure about the rhythm, but you should be able to figure it out after listening 
the song.

Tuning: Drop D(EADG)

Intro/Pre-Verse

G|---------------------------------------------------|
D|---------------------------------------------------|
A|---------------------------------------------------|
D|-1~---3~--6-9-3-333333333333333333333333333333333--|

G|--------------------------------------------------------------------------|
D|--------------------------------------------------------------------------|
A|--------------------------------------------------------------------------|
D|-6-898-3-333333333333333333333333333-6-9-3-333333333333333333333333333333-|

Verses (all of them are the same)

G|------------------------------------------------------------------|
D|------------------------------------------------------------------|
A|-----------------------66-6666-55-5555-44-4444-33-3333------------|
D|-6-898-33-3333-66-6666----------------------------------10-8-6-5--|

G|------------------------------------------------------------|
D|------------------------------------------------------------|
A|-----------------66-6666-55-5555-44-4444-33-3333--33333333--|
D|-33-3333-66-6666--------------------------------------------|

Choruses (all of them are the same)

G|------------------------------------------------------------------------|
D|------------------------------------------------------------------------|
A|-------------------------------------------------33-3333-33-3333--------|
D|-33-3333-33-3333-66-6666-66-6666-88-8888-88-8888------------------------|

Pre-Verse

G|---------------------------------------------------------------------|
D|---------------------------------------------------------------------|
A|---------------------------------------------------------------------|
D|-333333333333333333333333333-6-9-3-33333333333333333333333333--------|

Bridge (x4)

G|-------------------------------------------|
D|-------------------------------------------|
A|-------------------------------------------|
D|-3-33-333-6-66-666-1-11-111-8-88-888-------|

G|------------------------------------------|
D|------------------------------------------|
A|----------------------------333333333333--|
D|-33333333-66666666-88888888---------------|

Outro

G|---------------------------------------------|
D|---------------------------------------------|
A|---------------------------------------------|
D|-33333333333333333333333333333--6--9--3------|

Here's the order in which the song goes:

Intro/Pre-Verse x1
Verse x1
Chorus x1
Pre Verse x1
Verse x1
Chorus x1
Bridge x4
Chorus x3
Outro (until the song fades out)
Suggest correction
Give kudos to tab author, rate the tab!
1 2 3 4 5
comments
print report bad tab
1 comment total.
0 reply
alexthelion17 52 Jul 01, 2013 04:52 AM

Tuning: Drop D(EADG)
Shouldn't that say: Tuning Drop D(DADG)

guest
You may want to rate the tab now too:
select rating
Wanna post a correction for this tab? Suggest correction