Oops, an error
Loading. Please wait.

Make Me Wanna Die Tab

version 3
version 3

Whole song

Interactive

25,789 views 3 this week
3 commentsread comments
1 2 3 4 5
excellent!
x 7
add to favorites
launch autoscroll
font size
0
reset
how to read this tab
guitar tuner
Tab Pro tools
  • play this tab
  • loop segment
  • change instrument
  • show fretboard
  • metronome
×
Best way to learn
"Make Me Wanna Die"
Autoscroll
slow
fast
+/-
esc
set tempo
stop
Contributor
Tuning
D A D G B E
-------------------------------------------------------------------------------
                             Make Me Wanna Die - The Pretty Reckless
-------------------------------------------------------------------------------

Tuning: Drop-D

[Intro/Pre-verse]
e|---------------------------------------------------|
B|---------------------------------------------------|
G|---------------------------------------------------|
D|-1~---3~--6-9-3-333333333333333333333333333333333--|
A|-1~---3~--6-9-3-333333333333333333333333333333333--|
D|-1~---3~--6-9-3-333333333333333333333333333333333--|
                  .................................

e|--------------------------------------------------------------------------|
B|--------------------------------------------------------------------------|
G|--------------------------------------------------------------------------|
D|-6-898-3-333333333333333333333333333-6-9-3-333333333333333333333333333333-|
A|-6-898-3-333333333333333333333333333-6-9-3-333333333333333333333333333333-|
D|-6-898-3-333333333333333333333333333-6-9-3-333333333333333333333333333333-|
           ...........................       ..............................

[Verse 1]
e|------------------------------------------------------------------|
B|------------------------------------------------------------------|
G|-----------------------88-8888-77-7777-66-6666-55-5555------------|
D|-6-898-33-3333-66-6666-88-8888-77-7777-66-6666-55-5555--10-8-6-5--|
A|-6-898-33-3333-66-6666-66-6666-55-5555-44-4444-33-3333--10-8-6-5--|
D|-6-898-33-3333-66-6666----------------------------------10-8-6-5--|
         .. .... .. .... .. .... .. .... .. .... .. ....

e|------------------------------------------------------------|
B|------------------------------------------------------------|
G|-----------------88-8888-77-7777-66-6666-55-5555--55555555--|
D|-33-3333-66-6666-88-8888-77-7777-66-6666-55-5555--55555555--|
A|-33-3333-66-6666-66-6666-55-5555-44-4444-33-3333--33333333--|
D|-33-3333-66-6666--------------------------------------------|
   .. .... .. .... .. .... .. .... .. .... .. ....

[Chorus]
e|------------------------------------------------------------------------|
B|------------------------------------------------------------------------|
G|-------------------------------------------------55-5555-55-5555--------|
D|-33-3333-33-3333-66-6666-66-6666-88-8888-88-8888-55-5555-55-5555--------|
A|-33-3333-33-3333-66-6666-66-6666-88-8888-88-8888-33-3333-33-3333--------|
D|-33-3333-33-3333-66-6666-66-6666-88-8888-88-8888------------------------|

e|-------------------------------------------------------------------|
B|-------------------------------------------------------------------|
G|-66-6666-88-8888-1010-10101010-88-8888-----------------------------|
D|-66-6666-88-8888-1010-10101010-88-8888-88-8888-8-8-8-8--10-8-6-5---|
A|-44-4444-66-6666-8-8--8-8-8-8--66-6666-88-8888-8-8-8-8--10-8-6-5---|
D|---------------------------------------88-8888-8-8-8-8--10-8-6-5---|

[Pre-verse]
e|------------------------------------------------------------------------|
B|------------------------------------------------------------------------|
G|------------------------------------------------------------------------|
D|-333333333333333333333333333-6-9-3-33333333333333333333333333-----------|
A|-333333333333333333333333333-6-9-3-33333333333333333333333333-----------|
D|-333333333333333333333333333-6-9-3-33333333333333333333333333-----------|
   ...........................       ..........................

[Verse 2]
e|------------------------------------------------------------------|
B|------------------------------------------------------------------|
G|-----------------------88-8888-77-7777-66-6666-55-5555------------|
D|-6-898-33-3333-66-6666-88-8888-77-7777-66-6666-55-5555--10-8-6-5--|
A|-6-898-33-3333-66-6666-66-6666-55-5555-44-4444-33-3333--10-8-6-5--|
D|-6-898-33-3333-66-6666----------------------------------10-8-6-5--|
         .. .... .. .... .. .... .. .... .. .... .. ....

e|------------------------------------------------------------|
B|------------------------------------------------------------|
G|-----------------88-8888-77-7777-66-6666-55-5555--55555555--|
D|-33-3333-66-6666-88-8888-77-7777-66-6666-55-5555--55555555--|
A|-33-3333-66-6666-66-6666-55-5555-44-4444-33-3333--33333333--|
D|-33-3333-66-6666--------------------------------------------|
   .. .... .. .... .. .... .. .... .. .... .. ....

[Chorus]
e|------------------------------------------------------------------------|
B|------------------------------------------------------------------------|
G|-------------------------------------------------55-5555-55-5555--------|
D|-33-3333-33-3333-66-6666-66-6666-88-8888-88-8888-55-5555-55-5555--------|
A|-33-3333-33-3333-66-6666-66-6666-88-8888-88-8888-33-3333-33-3333--------|
D|-33-3333-33-3333-66-6666-66-6666-88-8888-88-8888------------------------|

e|-------------------------------------------------------------------|
B|-------------------------------------------------------------------|
G|-66-6666-88-8888-1010-10101010-88-8888-----------------------------|
D|-66-6666-88-8888-1010-10101010-88-8888-88-8888-8-8-8-8--10-8-6-5---|
A|-44-4444-66-6666-8-8--8-8-8-8--66-6666-88-8888-8-8-8-8--10-8-6-5---|
D|---------------------------------------88-8888-8-8-8-8--10-8-6-5---|

[Bridge]
e|-------------------------------------------|
B|-------------------------------------------|
G|-------------------------------------------| x4
D|-3-33-333-6-66-666-1-11-111-8-88-888-------|
A|-3-33-333-6-66-666-1-11-111-8-88-888-------|
D|-3-33-333-6-66-666-1-11-111-8-88-888-------|

e|------------------------------------------|
B|------------------------------------------|
G|----------------------------555555555555--|
D|-33333333-66666666-88888888-555555555555--|
A|-33333333-66666666-88888888-333333333333--|
D|-33333333-66666666-88888888---------------|
   ........ ........ ........

[Chorus]
e|------------------------------------------|
B|------------------------------------------|
G|-66-6666-88-8888-1010-10101010-88-8888----| x3
D|-66-6666-88-8888-1010-10101010-88-8888----|
A|-44-4444-66-6666-8-8--8-8-8-8--66-6666----|
D|------------------------------------------|

e|----------------------------|
B|----------------------------|
G|----------------------------|
D|-88-8888-8888-10-8-6-5------|
A|-88-8888-8888-10-8-6-5------|
D|-88-8888-8888-10-8-6-5------|

[Outro]
e|---------------------------------------------|
B|---------------------------------------------|
G|---------------------------------------------| (Repeat till fade out)
D|-33333333333333333333333333333--6--9--3------|
A|-33333333333333333333333333333--6--9--3------|
D|-33333333333333333333333333333--6--9--3------|
   .............................
comments
print report bad tab
3 comments total.
0 reply
missguidedish wrote on August 9 2011, 02:36 pm

misguidedghost! you rock

0 reply
missguidedish wrote on August 9 2011, 03:11 pm


the beginning part from the other tab is ahm

E-----------------------------------
B-9--9----8 9 11 9---9----------9---
G--10-9 10---------10-9 10 8 6 5-10-
D-----------------------------------
A-----------------------------------
D-----------------------------------

and that's just right before what you have at the beginning, and then it's also during when she sings 'Your eyes, your eyes
I can see in your eyes, your eyes"

0 reply
misguidedghost wrote on December 2 2011, 10:43 pm

^Haha, I didn't include that cos it was already in another tab and I'm not sure if that's actually played by a guitar.

I want to post or [tab]
guest
You may want to rate the tab now too:
select rating
Please do not post tabs as comments. Select "correction" instead!