Oops, an error
Loading. Please wait.

Make Me Wanna Die Bass Tab

version 4
version 4

Whole song

Interactive

5,576 views 15 this week
2 commentsread comments
1 2 3 4 5
x 9
add to favorites
launch autoscroll
font size
0
reset
guitar tuner
Autoscroll
slow
fast
+/-
esc
set tempo
stop
Help us to improve Ultimate-Guitar.com Take our survey!
×
Author
Difficulty
intermediate
======================================================================
|                                                                    |
|           The Pretty Reckless - Make Me Wanna Die (Bass)           |
|                                                                    |
======================================================================

Tabbed by: Austen Cheah

Tuning: Drop-Eb

 =========
 | Intro |
 =========
   +   +   +   +    +   +   +   +    +   +   +   +    +   +   +   +
G |----------------|----------------|----------------|----------------|
D |----------------|----------------|----------------|----------------|
A |----------------|------------2---|----------------|------------121-|
Eb|0---------------|2-------5-------|2-22222222222222|222222225-------|

   +   +   +   +    +   +   +   +    +   +   +   +    +   +   +   +
G |----------------|----------------|----------------|----------------|
D |----------------|----------------|----------------|----------------|
A |----------------|------------2---|----------------|------------121-|
Eb|2-22222222222222|222222225-------|2-22222222222222|222222225-------|

 ===========
 | Verse 1 |
 ===========
   +   +   +   +    +   +   +   +    +   +   +   +    +   +   +   +
G |----------------|----------------|----------------|----------------|
D |----------------|----------------|----------------|----------------|
A |----------------|6-6-6-6-5-5-5-5-|4-4-4-4-3-3-3-3-|3---1-----------|
Eb|2-2-2-2-5-5-5-5-|----------------|----------------|--------5---4---|

   +   +   +   +    +   +   +   +    +   +   +   +    +   +   +   +
G |----------------|----------------|----------------|----------------|
D |----------------|----------------|----------------|----------------|
A |----------------|6-6-6-6-5-5-5-5-|4-4-4-4-3-3-3-3-|3-3-3-3-3-3-3-3-|
Eb|2-2-2-2-5-5-5-5-|----------------|----------------|----------------|

 ==============
 | Pre-chorus |
 ==============
   +   +   +   +    +   +   +   +    +   +   +   +    +   +   +   +
G |----------------|----------------|----------------|----------------|
D |----------------|3---1-----------|----------------|----------------|
A |4-------3-------|--------4-----3-|4---------------|----------------|
Eb|----------------|------------2---|------5-4---/---|9---------------|

 ==========
 | Chorus |
 ==========
   +   +   +   +    +   +   +   +    +   +   +   +    +   +   +   +
G |----------------|----------------|----------------|----------------|
D |----------------|----------------|----------------|----------------|
A |----------------|----------------|1-1-11111-1-1111|3-3-33333-3-3333|
Eb|2-2-22222-2-2222|5-5-55555-5-5555|----------------|----------------|

   +   +   +   +    +   +   +   +    +   +   +   +    +   +   +   +
G |----------------|----------------|----------------|----------------|
D |--------1-1-1111|3-3-33331-1-1111|----------------|----------------|
A |4-4-4444--------|----------------|1-1-11111-1-1111|3-1-------------|
Eb|----------------|----------------|----------------|----5-4---------|

 ===============
 | Post-chorus |
 ===============
   +   +   +   +    +   +   +   +    +   +   +   +    +   +   +   +
G |----------------|----------------|----------------|----------------|
D |----------------|----------------|----------------|----------------|
A |----------------|------------2---|----------------|------------121-|
Eb|2-22222222222222|222222225-------|2-22222222222222|222222225-------|

 ===========
 | Verse 2 |
 ===========
   +   +   +   +    +   +   +   +    +   +   +   +    +   +   +   +
G |----------------|----------------|----------------|----------------|
D |----------------|----------------|----------------|----------------|
A |----------------|6-6-6-6-5-5-5-5-|4-4-4-4-3-3-3-3-|3-3-3-3-3-1-----|
Eb|2-2-2-2-5-5-5-5-|----------------|----------------|------------5-4-|

   +   +   +   +    +   +   +   +    +   +   +   +    +   +   +   +
G |----------------|----------------|----------------|----------------|
D |----------------|----------------|----------------|----------------|
A |----------------|6-6-6-6-5-5-5-5-|4-4-4-4-3-3-3-3-|3-3-3-3-3-3-3-3-|
Eb|2-2-2-2-5-5-5-5-|----------------|----------------|----------------|

 ==============
 | Pre-chorus |
 ==============
   +   +   +   +    +   +   +   +    +   +   +   +    +   +   +   +
G |----------------|----------------|----------------|----------------|
D |----------------|3---1-----------|----------------|3---1-----------|
A |4-------3-------|--------4-----3-|4---------------|--------4-----3-|
Eb|----------------|------------2---|------5-4-------|------------2---|

   +   +   +   +    +   +   +   +
G |----------------|----------------|
D |----------------|----------------|
A |4---------------|----------------|
Eb|------5-4---/---|9---------------|

 ==========
 | Chorus |
 ==========
   +   +   +   +    +   +   +   +    +   +   +   +    +   +   +   +
G |----------------|----------------|----------------|----------------|
D |----------------|----------------|----------------|----------------|
A |----------------|----------------|1-1-11111-1-1111|3-3-33333-3-3333|
Eb|2-2-22222-2-2222|5-5-55555-5-5555|----------------|----------------|

   +   +   +   +    +   +   +   +    +   +   +   +    +   +   +   +
G |----------------|----------------|----------------|----------------|
D |--------1-1-1111|3-3-33331-1-1111|----------------|----------------|
A |4-4-4444--------|----------------|1-1-11111-1-1111|3-1-------------|
Eb|----------------|----------------|----------------|----5-4---------|

 ==========
 | Bridge |
 ==========
   +   +   +   +    +   +   +   +    +   +   +   +    +   +   +   +
G |----------------|----------------|----------------|----------------|
D |----------------|----------------|----------------|----------------|
A |----------------|4---------------|----------------|----------------|
Eb|2---------------|----------------|5---------------|0---------------|

   +   +   +   +    +   +   +   +    +   +   +   +    +   +   +   +
G |----------------|----------------|----------------|----------------|
D |----------------|----------------|----------------|----------------|
A |----------------|4---------------|----------------|----------------|
Eb|2---------------|----------------|5---------------|0---------------|

   +   +   +   +    +   +   +   +    +   +   +   +    +   +   +   +
G |----------------|----------------|----------------|----------------|
D |----------------|----------------|----------------|----------------|
A |----------------|4---------------|----------------|----------------|
Eb|2---------------|----------------|5---------------|0---------------|

   +   +   +   +    +   +   +   +    +   +   +   +    +   +   +   +
G |----------------|----------------|----------------|----------------|
D |----------------|----------------|----------------|----------------|
A |----------------|4---------------|----------------|----------------|
Eb|2---------------|----------------|5---------------|0---------------|

   +   +   +   +    +   +   +   +    +   +   +   +    +   +   +   +
G |----------------|----------------|----------------|----------------|
D |----------------|----------------|----------------|----------------|
A |----------------|4-4-4-4-4-4-4-4-|1-1-1-1-1-1-1-1-|3-3-3-3-3-3-3-3-|
Eb|2-2-2-2-2-2-2-2-|----------------|----------------|----------------|

 ==========
 | Chorus |
 ==========
   +   +   +   +    +   +   +   +    +   +   +   +    +   +   +   +
G |----------------|----------------|----------------|----------------|
D |--------1-1-1111|3-3-33331-1-1111|--------1-1-1111|3-3-33331-1-1111|
A |4-4-4444--------|----------------|4-4-4444--------|----------------|
Eb|----------------|----------------|----------------|----------------|

   +   +   +   +    +   +   +   +    +   +   +   +    +   +   +   +
G |----------------|----------------|----------------|----------------|
D |--------1-1-1111|3-3-33331-1-1111|----------------|----------------|
A |4-4-4444--------|----------------|1-1-11111-1-1111|3-1-------------|
Eb|----------------|----------------|----------------|----5-4---------|

 =========
 | Outro |
 =========
   +   +   +   +    +   +   +   +    +   +   +   +    +   +   +   +
G |----------------|----------------|----------------|----------------|
D |----------------|----------------|----------------|----------------|
A |----------------|------------2---|----------------|------------121-|
Eb|2-22222222222222|222222225-------|2-22222222222222|222222225-------|

   +   +   +   +    +   +   +   +    +   +   +   +    +   +   +   +
G |----------------|----------------|----------------|----------------|
D |----------------|----------------|----------------|----------------|
A |----------------|------------2---|----------------|------------121-|
Eb|2-22222222222222|222222225-------|2-22222222222222|222222225-------|
Suggest correction
comments
print report bad tab
2 comments total.
0 reply
Hikaru-Kun 36 Dec 05, 2015 12:30 PM

It's really good, thank you!

0 reply
Hikaru-Kun 36 Dec 05, 2015 02:56 PM

I'm not pretty sure, but at these parts
+ + + + + + + + + + + + + + + +
G |----------------|----------------|----------------|----------------|
D |----------------|----------------|----------------|----------------|
A |----------------|------------2---|----------------|------------121-|
Eb|2-22222222222222|222222225-------|2-22222222222222|222222225-------|

I think it is better to play
+ + + + + + + + + + + + + + + +
G |----------------|----------------|----------------|----------------|
D |----------------|----------------|----------------|----------------|
A |----------------|------------2---|----------------|------------1p2-|
Eb|2-22222222222222|222222225-------|2-22222222222222|222222225-------|

Correct me if I'm wrong :)

guest
You may want to rate the tab now too:
select rating
Wanna post a correction for this tab? Suggest correction