Oops, an error
Loading. Please wait.

Make Me Wanna Die Tab

version 5
version 5

Whole song

Interactive

33,445 views 84 this week
6 commentsread comments
1 2 3 4 5
x 18
add to favorites
launch autoscroll
font size
0
reset
how to read this tab
guitar tuner
Autoscroll
slow
fast
+/-
esc
set tempo
stop
Help us to improve Ultimate-Guitar.com Take our survey!
×
Author
Difficulty
Tuning
novice
D A D G B E
this is best played with my bass tab for this song


[Intro]

E|---------------------------------------------------------------------------------|
B|-9--9----8-9-11-9--9----------9--------------------------------------------------|
G|--10-9-10--------10-9-10-8-6-5-10------------------------------------------------|
D|----------------------------------1-3-6-9-3-3-3-3-3-3-3-3-3-3-3-3-3-3-3-3-3-6-9--|
A|----------------------------------1-3-6-9-3-3-3-3-3-3-3-3-3-3-3-3-3-3-3-3-3-6-9--|
D|----------------------------------1-3-6-9-3-3-3-3-3-3-3-3-3-3-3-3-3-3-3-3-3-6-9--|


[verse]

E|---------------------------------------------------------------------------------------------|
B|---------------------------------------------------------------------------------------------|
G|-----------------------8-8-8-8---7-7-7-7---6-6-6-6---5-5-5-5---------------------------------|
D|-3-3-3-3-3--6-6-6-6-6--8-8-8-8---7-7-7-7---6-6-6-6---5-5-5-5---10--8--6--5-------------------|
A|-3-3-3-3-3--6-6-6-6-6--6-6-6-6---5-5-5-5---4-4-4-4---3-3-3-3---10--8--6--5-------------------|
D|-3-3-3-3-3--6-6-6-6-6------------------------------------------10--8--6--5-------------------|
  Take   I'm    never  wicked every better  sun goes down

[Take me, I'm alive, never was a girl with a wicked mind, but everything looks better 
when the sun goes down]

E|-------------------------------------------------------------------------------------|
B|-------------------------------------------------------------------------------------|
G|-------------------8-8-8-8---7-7-7-7---6-6-6-6---5-5-5-5--5-5-5-5-5-5-5-5------------|
D|-3-3-3-3--6-6-6-6--8-8-8-8---7-7-7-7---6-6-6-6---5-5-5-5--5-5-5-5-5-5-5-5------------|
A|-3-3-3-3--6-6-6-6--6-6-6-6---5-5-5-5---4-4-4-4---3-3-3-3--3-3-3-3-3-3-3-3------------|
D|-3-3-3-3--6-6-6-6--------------------------------------------------------------------|
  I     every oppor  etern  I    belong tothe night

[I had everything, opportunities for eternity, and I could belong to the night]


E|------------------------------------------------------------|
B|-9--9----8-9-11-9--9----------------------------------------|
G|--10-9-10--------10-9---------------------------------------|
D|------------------------------------------------------------|
A|------------------------------------------------------------|
D|------------------------------------------------------------|

[your eyes, your eyes, I can see in your eyes, your eyes]

NC
[You make me wanna die]


[Chorus]

E|--------------------------------------------------------------------------------------------------------|
B|--------------------------------------------------------------------------------------------------------|
G|-------------------------------------------------------------------------5-5-5-5-5-5-5-5-5-5-5-5--------|
D|-3-3-3-3-3-3-3-3-3-3-3-3-6-6-6-6-6-6-6-6-6-6-6-6-8-8-8-8-8-8-8-8-8-8-8-8-5-5-5-5-5-5-5-5-5-5-5-5--------|
A|-3-3-3-3-3-3-3-3-3-3-3-3-6-6-6-6-6-6-6-6-6-6-6-6-8-8-8-8-8-8-8-8-8-8-8-8-3-3-3-3-3-3-3-3-3-3-3-3--------|
D|-3-3-3-3-3-3-3-3-3-3-3-3-6-6-6-6-6-6-6-6-6-6-6-6-8-8-8-8-8-8-8-8-8-8-8-8--------------------------------|
  I'll             enough          die             Love

E|---------------------------------------------------------------------------------------|
B|---------------------------------------------------------------------------------------|
G|-6-6-6-6-6-6-8-8-8-8-8-8-10-10-10-10-10-10-8-8-8-8-8-8---------------------------------|
D|-6-6-6-6-6-6-8-8-8-8-8-8-10-10-10-10-10-10-8-8-8-8-8-8-8-8-8-8-8-8-8-8-8-8--10-8-6-5---|
A|-4-4-4-4-4-4-6-6-6-6-6-6-8--8--8--8--8--8--6-6-6-6-6-6-8-8-8-8-8-8-8-8-8-8--10-8-6-5---|
D|-------------------------------------------------------8-8-8-8-8-8-8-8-8-8--10-8-6-5---|
   light   look   inside         e---    eyes
NC
you make me wanna die

[I'll never be good enough, you make me wanna die, and everything you love, will burn up 
in the light, and everytime i look inside your eyes, you make me wanna die]


[Pre-verse]

E|----------------------------------------------------------|
B|----------------------------------------------------------|
G|----------------------------------------------------------|
D|-3-3-3-3-3-3-3-3-3-3-3-3-3-3-3-3-3-3-3-3-3-3-3-3-3-3-3-6-9|
A|-3-3-3-3-3-3-3-3-3-3-3-3-3-3-3-3-3-3-3-3-3-3-3-3-3-3-3-6-9|
D|-3-3-3-3-3-3-3-3-3-3-3-3-3-3-3-3-3-3-3-3-3-3-3-3-3-3-3-6-9|

E|------------------------------------------------------------|
B|------------------------------------------------------------|
G|------------------------------------------------------------|
D|-3-3-3-3-3-3-3-3-3-3-3-3-3-3-3-3-3-3-3-3-3-3-3-3-3-3-3-6-9--|
A|-3-3-3-3-3-3-3-3-3-3-3-3-3-3-3-3-3-3-3-3-3-3-3-3-3-3-3-6-9--|
D|-3-3-3-3-3-3-3-3-3-3-3-3-3-3-3-3-3-3-3-3-3-3-3-3-3-3-3-6-9--|


[Verse 2]

E|------------------------------------------------------------------------------------|
B|------------------------------------------------------------------------------------|
G|-------------------------8-8-8-8-8-8-7-7-7-7-7-7-6-6-6-6-6-6-5-5-5-5-5-5------------|
D|-3-3-3-3-3-3-6-6-6-6-6-6-8-8-8-8-8-8-7-7-7-7-7-7-6-6-6-6-6-6-5-5-5-5-5-5--10-8-6-5--|
A|-3-3-3-3-3-3-6-6-6-6-6-6-6-6-6-6-6-6-5-5-5-5-5-5-4-4-4-4-4-4-3-3-3-3-3-3--10-8-6-5--|
D|-3-3-3-3-3-3-6-6-6-6-6-6--------------------------------------------------10-8-6-5--|

E|-------------------------------------------------------------------------------------------|
B|-------------------------------------------------------------------------------------------|
G|-------------------------8-8-8-8-8-8-7-7-7-7-7-7-6-6-6-6-6-6-5-5-5-5-5-5--5-5-5-5-5-5-5-5--|
D|-3-3-3-3-3-3-6-6-6-6-6-6-8-8-8-8-8-8-7-7-7-7-7-7-6-6-6-6-6-6-5-5-5-5-5-5--5-5-5-5-5-5-5-5--|
A|-3-3-3-3-3-3-6-6-6-6-6-6-6-6-6-6-6-6-5-5-5-5-5-5-4-4-4-4-4-4-3-3-3-3-3-3--3-3-3-3-3-3-3-3--|
D|-3-3-3-3-3-3-6-6-6-6-6-6-------------------------------------------------------------------|

[Taste me, drink my soul, show me all the things that I shouldn't know, And there's a 
blue moon on the rise]


[Pre-Chorus]

E|---------------------------------------------------------------------|
B|-9--9----8-9-11-9--9----8-9-11-9--9----------------------------------|
G|--10-9-10--------10-9-10--------10-9---------------------------------|
D|---------------------------------------------------------------------|
A|---------------------------------------------------------------------|
D|---------------------------------------------------------------------|

[your eyes, your eyes, i can see in your eyes, your eyes, everything in your eyes, your eyes]

NC
you make me wanna die


[Chorus]

E|--------------------------------------------------------------------------------------------------------|
B|--------------------------------------------------------------------------------------------------------|
G|-------------------------------------------------------------------------5-5-5-5-5-5-5-5-5-5-5-5--------|
D|-3-3-3-3-3-3-3-3-3-3-3-3-6-6-6-6-6-6-6-6-6-6-6-6-8-8-8-8-8-8-8-8-8-8-8-8-5-5-5-5-5-5-5-5-5-5-5-5--------|
A|-3-3-3-3-3-3-3-3-3-3-3-3-6-6-6-6-6-6-6-6-6-6-6-6-8-8-8-8-8-8-8-8-8-8-8-8-3-3-3-3-3-3-3-3-3-3-3-3--------|
D|-3-3-3-3-3-3-3-3-3-3-3-3-6-6-6-6-6-6-6-6-6-6-6-6-8-8-8-8-8-8-8-8-8-8-8-8--------------------------------|

E|---------------------------------------------------------------------------------------|
B|---------------------------------------------------------------------------------------|
G|-6-6-6-6-6-6-8-8-8-8-8-8-10-10-10-10-10-10-8-8-8-8-8-8---------------------------------|
D|-6-6-6-6-6-6-8-8-8-8-8-8-10-10-10-10-10-10-8-8-8-8-8-8-8-8-8-8-8-8-8-8-8-8--10-8-6-5---|
A|-4-4-4-4-4-4-6-6-6-6-6-6-8--8--8--8--8--8--6-6-6-6-6-6-8-8-8-8-8-8-8-8-8-8--10-8-6-5---|
D|-------------------------------------------------------8-8-8-8-8-8-8-8-8-8--10-8-6-5---|
[I'll never be good enough, You make me wanna die, and everything you love, will burn up 
in the light, and every time i look inside your eyes, (burning in the light)
NC
you make me wanna die]


[Bridge]

E|-------------------------------------------------------|
B|-------------------------------------------------------|
G|-------------------------------------------------------| x4
D|-3-3-3-3-3-3-6-6-6-6-6-6-1-1-1-1-1-1-8-8-8-8-8-8-------|
A|-3-3-3-3-3-3-6-6-6-6-6-6-1-1-1-1-1-1-8-8-8-8-8-8-------|
D|-3-3-3-3-3-3-6-6-6-6-6-6-1-1-1-1-1-1-8-8-8-8-8-8-------|

E|--------------------------------------------------------------------------|
B|--------------------------------------------------------------------------|
G|-------------------------------------------------5-5-5-5-5-5-5-5-5-5-5-5--|
D|-3-3-3-3-3-3-3-3-6-6-6-6-6-6-6-6-8-8-8-8-8-8-8-8-5-5-5-5-5-5-5-5-5-5-5-5--|
A|-3-3-3-3-3-3-3-3-6-6-6-6-6-6-6-6-8-8-8-8-8-8-8-8-3-3-3-3-3-3-3-3-3-3-3-3--|
D|-3-3-3-3-3-3-3-3-6-6-6-6-6-6-6-6-8-8-8-8-8-8-8-8--------------------------|

[I'll die for you, my love, my love,
I'll lie for you, my love, my love, (you make me wanna die)
I'll steal for you, my love, my love, (you make me wanna die)
I'll die for you, my love, my love,
We'll burn up in the light]


[Chorus]

E|----------------------------------------------------------|
B|----------------------------------------------------------|
G|-6-6-6-6-6-6-8-8-8-8-8-8-10-10-10-10-10-10-8-8-8-8-8-8----| x3
D|-6-6-6-6-6-6-8-8-8-8-8-8-10-10-10-10-10-10-8-8-8-8-8-8----|
A|-4-4-4-4-4-4-6-6-6-6-6-6-8--8--8--8--8--8--6-6-6-6-6-6----|
D|----------------------------------------------------------|


E|-----------------------------------|
B|-----------------------------------|
G|-----------------------------------|
D|-8-8-8-8-8-8-8-8-8-8-10-8-6-5------|
A|-8-8-8-8-8-8-8-8-8-8-10-8-6-5------|
D|-8-8-8-8-8-8-8-8-8-8-10-8-6-5------|

[everytime i look inside your eyes, I'm burning in the light, I look inside your eyes, 
I'm burning in the light, I look inside your eyes]

N.C.
you make me wanna die (I stop here)


[Outro]

E|-------------------------------------------------------------------------|
B|-------------------------------------------------------------------------|
G|-------------------------------------------------------------------------| (Repeat and fade(lol))
D|-3-3-3-3-3-3-3-3-3-3-3-3-3-3-3-3-3-3-3-3-3-3-3-3-3-3-3-3-3--6--9--3------|
A|-3-3-3-3-3-3-3-3-3-3-3-3-3-3-3-3-3-3-3-3-3-3-3-3-3-3-3-3-3--6--9--3------|
D|-3-3-3-3-3-3-3-3-3-3-3-3-3-3-3-3-3-3-3-3-3-3-3-3-3-3-3-3-3--6--9--3------|
Suggest correction
comments
print report bad tab
6 comments total. Showing first comments.
0 reply
GuitarDaiter 10 Sep 04, 2011 02:35 PM

Found this to be the best of the bunch thanks a lot!

+1 reply
xdays_ive_diedx 570 Jul 08, 2013 07:15 PM

Seems almost perfect to me. Just the first part of the bridge sounds like it'd actually be:

e|-------------------------------------------|
B|-------------------------------------------|
G|----------6-66-666----------8-88-888-------| x4
D|-3-33-333-6-66-666-6-66-666-8-88-888-------|
A|-3-33-333-4-44-444-6-66-666-6-66-666-------|
D|-3-33-333----------6-66-666----------------|

Other than that. 5 stars.

0 reply
pogeybait 114 Jul 05, 2014 12:56 AM

e|-------------------------------------------|
B|-------------------------------------------|
G|----------6-66-666-------------------------| x4
D|-3-33-333-6-66-666-6-66-666-1-11-111-------|
A|-3-33-333-4-44-444-6-66-666-1-11-111-------|
D|-3-33-333----------6-66-666-1-11-111-------|

That is what I hear on the bridge. The C# power chord I play on the 11th fret of the 4-6 strings and that last one is the D# on the 1st fret (those are not 11s).

guest
You may want to rate the tab now too:
select rating
Wanna post a correction for this tab? Suggest correction