Oops, an error
Loading. Please wait.
We have an official Make Me Wanna Die tab made by UG professional guitarists. Check out the tab »
×
82 views 1 this week
1 commentread comment
1 2 3 4 5
3 more votes to show rating
add to favorites
×
Save as Personal and add changes to this tab that will be seen only by you. Learn more ›
×
You can save this tab as Personal to edit and correct it or add notes. All changes will be seen only by you. Learn more »
launch autoscroll
font size
0
reset
how to read this tab
guitar tuner
edit
Autoscroll
slow
fast
+/-
esc
set tempo
stop
Author
Difficulty
[Intro]
   +   +   +   +    +   +   +   +    +   +   +   +    +   +   +   +
G |----------------|----------------|----------------|----------------|
D |----------------|----------------|----------------|----------------|
A |----------------|----------------|----------------|----------------|
E |----------------|--------4--676--|----------------|--------4---676-|
B |4---------------|6---------------|6-66666666666666|66666666--------|

   +   +   +   +    +   +   +   +    +   +   +   +    +   +   +   +
G |----------------|----------------|----------------|----------------|
D |----------------|----------------|----------------|----------------|
A |----------------|----------------|----------------|----------------|
E |----------------|--------4---7---|----------------|--------4---676-|
B |6-66666666666666|66666666--------|6-66666666666666|66666666--------|

[Verse]
   +   +   +   +    +   +   +   +    +   +   +   +    +   +   +   +
G |----------------|----------------|----------------|----------------|
D |----------------|----------------|----------------|----------------|
A |----------------|6-6-6-6-5-5-5-5-|4-4-4-4-3-3-3-3-|3---------------|
E |--------4-4-4-4-|----------------|----------------|----6---4---3---|
B |6-6-6-6------------------------------------------------------------|

   +   +   +   +    +   +   +   +    +   +   +   +    +   +   +   +
G |----------------|----------------|----------------|----------------|
D |----------------|----------------|----------------|----------------|
A |----------------|6-6-6-6-5-5-5-5-|4-4-4-4-3-3-3-3-|3-3-3-3-3-3-3-3-|
E |--------4-4-4-4-|----------------|----------------|----------------|
B |6-6-6-6---------|----------------|----------------|----------------|

[Pre-Chorus]
   +   +   +   +    +   +   +   +    +   +   +   +    +   +   +   +
G |----------------|----------------|----------------|----------------|
D |----------------|3---------------|----------------|----------------|
A |4-------3-------|----6---4-----3-|4---------------|----------------|
E |----------------|----------------|------4-3---/---|8---------------|
B |-----------------------------6-------------------------------------|

[Chorus]
   +   +   +   +    +   +   +   +    +   +   +   +    +   +   +   +
G |----------------|----------------|----------------|----------------|
D |----------------|----------------|----------------|----------------|
A |----------------|----------------|----------------|3-3-33333-3-3333|
E |----------------|4-4-44444-4-4444|6-6-66666-6-6666|----------------|
B |6-6-66666-6-6666|--------------------------------------------------|

   +   +   +   +    +   +   +   +    +   +   +   +    +   +   +   +
G |----------------|----------------|----------------|----------------|
D |----------------|3-3-3333--------|----------------|----------------|
A |4-4-44446-6-6666|--------6-6-6666|----------------|3---------------|
E |----------------|----------------|6-6-66666-6-6666|--6-4-3---------|
B |-------------------------------------------------------------------|

[Post-Chorus]
   +   +   +   +    +   +   +   +    +   +   +   +    +   +   +   +
G |----------------|----------------|----------------|----------------|
D |----------------|----------------|----------------|----------------|
A |----------------|----------------|----------------|----------------|
E |----------------|--------4---7---|----------------|--------4---676-|
B |6-66666666666666|66666666--------|6-66666666666666|66666666--------|

[Verse 2]
   +   +   +   +    +   +   +   +    +   +   +   +    +   +   +   +
G |----------------|----------------|----------------|----------------|
D |----------------|----------------|----------------|----------------|
A |----------------|6-6-6-6-5-5-5-5-|4-4-4-4-3-3-3-3-|3-3-3-3-3-------|
E |--------4-4-4-4-|----------------|----------------|----------6-4-3-|
B |6-6-6-6---------|----------------|----------------|----------------|

   +   +   +   +    +   +   +   +    +   +   +   +    +   +   +   +
G |----------------|----------------|----------------|----------------|
D |----------------|----------------|----------------|----------------|
A |----------------|6-6-6-6-5-5-5-5-|4-4-4-4-3-3-3-3-|3-3-3-3-3-3-3-3-|
E |--------4-4-4-4-|----------------|----------------|----------------|
B |6-6-6-6---------|----------------|----------------|----------------|

[Pre-Chorus]
   +   +   +   +    +   +   +   +    +   +   +   +    +   +   +   +
G |----------------|----------------|----------------|----------------|
D |----------------|3---------------|----------------|3---------------|
A |4-------3-------|----6---4-----3-|4---------------|----6---4-----3-|
E |----------------|----------------|------4-3-------|----------------|
B |----------------|------------6---|----------------|------------6---|

   +   +   +   +    +   +   +   +
G |----------------|----------------|
D |----------------|----------------|
A |4---------------|----------------|
E |------4-3---/---|8---------------|
B |---------------------------------|

[Chorus]
   +   +   +   +    +   +   +   +    +   +   +   +    +   +   +   +
G |----------------|----------------|----------------|----------------|
D |----------------|----------------|----------------|----------------|
A |----------------|----------------|----------------|3-3-33333-3-3333|
E |----------------|4-4-44444-4-4444|6-6-66666-6-6666|----------------|
B |6-6-66666-6-6666|--------------------------------------------------|

   +   +   +   +    +   +   +   +    +   +   +   +    +   +   +   +
G |----------------|----------------|----------------|----------------|
D |----------------|3-3-3333--------|----------------|----------------|
A |4-4-44446-6-6666|--------6-6-6666|----------------|3---------------|
E |----------------|----------------|6-6-66666-6-6666|--6-4-3---------|
B |-------------------------------------------------------------------|

[Bridge]
   +   +   +   +    +   +   +   +    +   +   +   +    +   +   +   +
G |----------------|----------------|----------------|----------------|
D |----------------|----------------|----------------|----------------|
A |----------------|4---------------|----------------|----------------|
E |----------------|----------------|4---------------|----------------|
B |6---------------|----------------|----------------|4---------------|

   +   +   +   +    +   +   +   +    +   +   +   +    +   +   +   +
G |----------------|----------------|----------------|----------------|
D |----------------|----------------|----------------|----------------|
A |----------------|4---------------|----------------|----------------|
E |----------------|----------------|4---------------|----------------|
B |6--------------------------------------------------4---------------|

   +   +   +   +    +   +   +   +    +   +   +   +    +   +   +   +
G |----------------|----------------|----------------|----------------|
D |----------------|----------------|----------------|----------------|
A |----------------|4---------------|----------------|----------------|
E |----------------|----------------|4---------------|----------------|
B |6---------------|----------------|----------------|4---------------|

   +   +   +   +    +   +   +   +    +   +   +   +    +   +   +   +
G |----------------|----------------|----------------|----------------|
D |----------------|----------------|----------------|----------------|
A |----------------|4---------------|----------------|----------------|
E |----------------|----------------|4---------------|----------------|
B |6---------------|----------------|----------------|4---------------|

   +   +   +   +    +   +   +   +    +   +   +   +    +   +   +   +
G |----------------|----------------|----------------|----------------|
D |----------------|----------------|----------------|----------------|
A |----------------|4-4-4-4-4-4-4-4-|----------------|3-3-3-3-3-3-3-3-|
E |----------------|----------------|6-6-6-6-6-6-6-6-|----------------|
B |6-6-6-6-6-6-6-6-|----------------|----------------|----------------|

[Chorus]
   +   +   +   +    +   +   +   +    +   +   +   +    +   +   +   +
G |----------------|----------------|----------------|----------------|
D |----------------|3-3-3333--------|----------------|3-3-3333--------|
A |4-4-44446-6-6666|--------6-6-6666|4-4-44446-6-6666|--------6-6-6666|
E |----------------|----------------|----------------|----------------|
B |---------------------------------|----------------|----------------|
   +   +   +   +    +   +   +   +    +   +   +   +    +   +   +   +
G |----------------|----------------|----------------|----------------|
D |----------------|3-3-3333--------|----------------|----------------|
A |4-4-44446-6-6666|--------6-6-6666|----------------|3---------------|
E |----------------|----------------|6-6-66666-6-6666|--6-4-3---------|
B |---------------------------------|---------------------------------|

[Outro]
   +   +   +   +    +   +   +   +    +   +   +   +    +   +   +   +
G |----------------|----------------|----------------|----------------|
D |----------------|----------------|----------------|----------------|
A |----------------|----------------|----------------|----------------|
E |----------------|--------4---7---|----------------|---------4--676-|
B |6-66666666666666|66666666--------|6-66666666666666|66666666--------|

   +   +   +   +    +   +   +   +    +   +   +   +    +   +   +   +
G |----------------|----------------|----------------|----------------|
D |----------------|----------------|----------------|----------------|
A |----------------|----------------|----------------|------------676-|
E |----------------|--------4---7---|2-22222222222222|--------4-------|
B |----------------|66666666--------|6-66666666666666|66666666--------|



************************************

| /  Slide up
 

************************************
Suggest correction
Creating personal tab
Creating personal tab
You can edit any tab online and save it as your Personal.

You can edit, replace or remove any tab part or add personal notes – all changes will be seen only by you.

Personal tabs can be accessed anytime from any device, even offline.
Learn more »
Give kudos to tab author, rate the tab!
1 2 3 4 5
comments
print report bad tab
1 comment total.
0 reply
david0518 240 May 01, 2017 10:12 AM

This is a bass tab. Not guitar (?!?!).

guest
You may want to rate the tab now too:
select rating
Wanna post a correction for this tab? Suggest correction