Oops, an error
Loading. Please wait.
We have an official My Medicine tab made by UG professional guitarists. Check out the tab »
×
13,004 views 42 this week
1 commentread comment
1 2 3 4 5
x 7
add to favorites
launch autoscroll
font size
0
reset
guitar tuner
Autoscroll
slow
fast
+/-
esc
set tempo
stop
Author
Difficulty
Tuning
novice
D# G# C# F#
Tuning: Half-step down

(NO BASS)
Somebody mixed my medicine
Somebody mixed my medicine

(0:24)
F#|---------|
C#|---------|
G#|---------|
D#|7-7-7----|

[Verse 1]
Well, you hurt where you sleep...
F#|----------------------------------|
C#|----------------------------------|
G#|----------------------------------|
D#|0~------3~------5~------7~--------|

Woman to the left and a boy to the right..
F#|---------------------------------|
C#|---------------------------------|
G#|3~------5~-----------------------|
D#|----------------5~------7-7-7----|

[Chorus]
Somebody mixed my medicine
F#|----------------------------------|
C#|----------------------------------|
G#|----------------------------------| (x2)
D#|0~------3~------5~------7~--------|

F#|----------------------------------|
C#|----------------------------------|
G#|----------------------------------|
D#|-0-0-0-0-3-3-3-3-5-5-5-5-7-7-7-7--|

F#|----------------------------------|
C#|----------------------------------|
G#|-3-3-3-3-5-5-5-5------------------|
D#|-----------------5-5-5~--7-7-7~---|

[Verse 2]
 Well, I'll drink what you leak...
F#|--------------------------------|
C#|--------------------------------|
G#|--------------------------------|
D#|0~------3~------5~------7~------|

Got a man to his left...
F#|---------------------------------|
C#|---------------------------------|
G#|3~------5~-----------------------|
D#|----------------5-5-5-----7-7-7--|

[Chorus]
Somebody mixed my medicine
F#|----------------------------------|
C#|----------------------------------|
G#|----------------------------------| (x2)
D#|0~------3~------5~------7~--------|

F#|----------------------------------|
C#|----------------------------------|
G#|----------------------------------|
D#|-0-0-0-0-3-3-3-3-5-5-5-5-7-7-7-7--|

F#|----------------------------------|
C#|----------------------------------|
G#|-3-3-3-3-5-5-5-5------------------|
D#|-----------------5-5-5~--7-7-7~---|

[Bridge]
There's a tiger in the room...
F#|----------------------------------|
C#|----------------------------------|
G#|----------------------------------|
D#|-3-3-3-3-3-3-3-3-0-0-0-0-0-0-0-0--|

Then I turn around and think I see...
F#|----------------------------------|
C#|----------------------------------|
G#|----------------------------------|
D#|-2222222233333333---7~---5~-------|

[Verse 3]
Well you hurt where you sleep...
F#|--------------------------------|
C#|--------------------------------|
G#|--------------------------------|
D#|0~------3~------5~------7~------|

Got a woman to ya left...
F#|---------------------------------|
C#|---------------------------------|
G#|3~------5~-----------------------|
D#|----------------5~------7-7-7----|

[Chorus/Outro]
Somebody mixed my medicine
F#|-----------------------------------|
C#|-----------------------------------|
G#|-----------------------------------| (x2)
D#|0~------3~------5~------7~---------|

F#|----------------------------------|
C#|----------------------------------|
G#|----------------------------------|
D#|-0-0-0-0-3-3-3-3-5-5-5-5-7-7-7-7--|

F#|----------------------------------|
C#|----------------------------------|
G#|-3-3-3-3-5-5-5-5------------------|
D#|-----------------5-5-5-5-7-7-7-7--|

F#|----------------------------------|
C#|----------------------------------|
G#|----------------------------------|
D#|-0-0-0-0-3-3-3-3-5-5-5-5-7-7-7-7--|

F#|----------------------------------|
C#|----------------------------------|
G#|----------------------------------|
D#|-0-0-0~--3-3-3~--5-5-5~--7-7-7~---|


************************************

| ~  Vibrato

************************************
Suggest correction
comments
print report bad tab
1 comment total.
0 reply
cameron.smith1278 10 Nov 10, 2016 12:50 PM

great tabs thanks!

guest
You may want to rate the tab now too:
select rating
Wanna post a correction for this tab? Suggest correction