Oops, an error
Loading. Please wait.

Nothing Left To Lose Chords

version 2
version 2

Whole song

610 views 12 this week
no commentswrite comment
1 2 3 4 5
x 3
add to favorites
launch autoscroll
font size
0
reset
transpose
0
reset
simplify chords
display chords
guitar tuner
Autoscroll
slow
fast
+/-
esc
set tempo
stop
Author
Strumming
There is no strumming pattern for this song yet. and get +5 IQ
I looked through all the tabs and chords for this song and none of them felt quite right; also, none of them 
had the solo. So I've put together this version, which I believe should be pretty close to accurate.


Intro

e |--3--5/--0------------------|
B |--------------6/5--1--3-3---|
G |----------------------------|
D |----------------------------|
A |----------------------------|
E |----------------------------|


     C                G
I was only 19, you were 29
    Am                     Em
Its just 10 years, but its such a long time
     F          C                 Dm     G
In a heartbeat, I would do it all again
C                       G
Late night sex, smokin' cigarettes
  Am                  Em
I try real hard but I cant forget
         F          C                 Dm     G
Now in a heartbeat, I would do it all again

E              E7                                           
Now I see that you and me were 
Am                             F                             
Never meant, never meant to be now
                G
Now I'm lost somewhere

             C         G
Lost between Elvis and suicide
Am             Em               F
Ever since the day we died, well
         C               Dm    G
I've got nothing left to lose

      C         G
After Jesus and Rock N Roll
Am               Em                F
Couldn't save my immoral soul, well
         C
I've got nothing left
Dm               G
I've got nothing left to lose


e |--3--5/--0------------------|
B |--------------6/5--1--3-3---|
G |----------------------------|
D |----------------------------|
A |----------------------------|
E |----------------------------|


C                        G
Callin' out sins just to pass the time
   Am                  Em
My life goes by in the blink of an eye  
           F
I know you want me
      C                  Dm     G 
I was only lookin' for a friend

C        G            Am
And everything that I was
         Em               F
And everything that I've become
     C       Dm      G
Just falls into the end and

E              E7                                           
Now I see that you and me were 
Am                             F                             
Never meant, never meant to be now
                G
Now I'm lost somewhere

             C         G
Lost between Elvis and suicide
Am             Em               F
Ever since the day we died, well
         C               Dm    G
I've got nothing left to lose

      C         G
After Jesus and Rock N Roll
Am               Em                F
Couldn't save my immoral soul, well
         C
I've got nothing left
Dm               G
I've got nothing left to lose


Solo

e |-----------------------|--------------------------15----------------|
B |-15^--15^--13--15--15--|--13p10--13h15--15^--15^------15^r15--13--10|
G |-----------------------|--------------------------------------------|
D |-----------------------|--------------------------------------------|
A |-----------------------|--------------------------------------------|
E |-----------------------|--------------------------------------------|


E              E7                                           
Now I see that you and me were 
Am                             F                             
Never meant, never meant to be now
                G
Now I'm lost somewhere

             C         G
Lost between Elvis and suicide
Am             Em               F
Ever since the day we died, well
         C               Dm    G
I've got nothing left to lose

      C         G
After Jesus and Rock N Roll
Am               Em                F
Couldn't save my immoral soul, well
         C
I've got nothing left
Dm               G
I've got nothing left to lose


End

e |--3--5/--0------------------|--3--5/--0----------------------|
B |--------------6/5--1--3-3---|--------------6/5--1--3-3---0--1|
G |----------------------------|--------------------------------|
D |----------------------------|--------------------------------|
A |----------------------------|--------------------------------|
E |----------------------------|--------------------------------|

Suggest correction
Give kudos to tab author, rate the tab!
1 2 3 4 5
comments
print report bad tab
guest
You may want to rate the tab now too:
select rating
Wanna post a correction for this tab? Suggest correction