Oops, an error
Loading. Please wait.

Oh My God Tab

361 views 36 this week
1 commentread comment
1 2 3 4 5
x 3
add to favorites
launch autoscroll
font size
0
reset
how to read this tab
guitar tuner
Autoscroll
slow
fast
+/-
esc
set tempo
stop
Help us to improve Ultimate-Guitar.com Take our survey!
×
Author
Difficulty
Tuning
novice
D# G# C# F# A# D#
----------------------------------------------------------------- 
OH MY GOD - The Pretty Reckless
----------------------------------------------------------------- 

Tabbed by: David Clark (david0518)
Tuning: 1/2 step down (Eb, Ab, Db, Gb, Bb, Eb)

INTRO:

*palm muting*
eb|----------------------------------|
Bb|----------------------------------|
Gb|----------------------------------|
Db|----------------------------------| 4x - faster each time
Ab|----------------------------------|
Eb|--0~~~---12p0-0-10p0-0-3p0-0~~~---|

eb|------------------------------------------|
Bb|------------------------------------------|
Gb|------------------------------------------|
Db|------------------------------------------| 10x
Ab|------------------------------------------|
Eb|--0-0-0-0-0-0-0-0-12p0-0-10p0-0-3p0-0-----|

VERSE:

"Oh my God; wish I was thin..."

eb|------------------------------------------|
Bb|------------------------------------------|
Gb|------------------------------------------|
Db|------------------------------------------| 
Ab|------------------------------------------|
Eb|--0-0-0-0-0-0-0-0-12p0-0-10p0-0-3p0-0-----|

"I'm just like them..."

eb|------------------------------------------|
Bb|------------------------------------------|
Gb|------------------------------------------|
Db|------------------------------------------|
Ab|------------------------------------------|
Eb|--0-0-0-0-0-0-0-0-12p0-0-13p0-0-10p0-0----|

CHORUS:

"I wanna take it back..."

eb|-------------------------6--6--6--6--6--6--6---|
Bb|-------------------------8--8--8--8--8--8--8---|
Gb|-----------5--3----------8--8--8--8--8--8--8---|
Db|-----2--5--------5---8---8--8--8--8--8--8--8---| x2
Ab|--3----------------------6--6--6--6--6--6--6---|
Eb|-----------------------------------------------|

"I wanna take it back to when I was so dumb and so innocent!"

eb|-----------------------------------------------------------------|
Bb|-----------------------------------------------------------------|
Gb|-----------5--3--------------------------------------------------|
Db|-----2--5--------5---8---5--8--7s----4--7--5s---2--5--4s---1--4--|
Ab|--3--------------------------------------------------------------|
Eb|-----------------------------------------------------------------|

VERSE 2:

eb|------------------------------------------|
Bb|------------------------------------------|
Gb|------------------------------------------|
Db|------------------------------------------| 4x
Ab|------------------------------------------|
Eb|--0-0-0-0-0-0-0-0-12p0-0-10p0-0-3p0-0-----|

"Oh my God; wish I was black..."

eb|------------------------------------------|
Bb|------------------------------------------|
Gb|------------------------------------------|
Db|------------------------------------------| 
Ab|------------------------------------------|
Eb|--0-0-0-0-0-0-0-0-12p0-0-10p0-0-3p0-0-----|

"I am so white..."

eb|------------------------------------------|
Bb|------------------------------------------|
Gb|------------------------------------------|
Db|------------------------------------------|
Ab|------------------------------------------|
Eb|--0-0-0-0-0-0-0-0-12p0-0-13p0-0-10p0-0----|

CHORUS:

"I wanna take it back..."

eb|-------------------------6--6--6--6--6--6--6---|
Bb|-------------------------8--8--8--8--8--8--8---|
Gb|-----------5--3----------8--8--8--8--8--8--8---|
Db|-----2--5--------5---8---8--8--8--8--8--8--8---| x2
Ab|--3----------------------6--6--6--6--6--6--6---|
Eb|-----------------------------------------------|

"I wanna take it back to when I was so dumb and so innocent!"

eb|-----------------------------------------------------------------|
Bb|-----------------------------------------------------------------|
Gb|-----------5--3--------------------------------------------------|
Db|-----2--5--------5---8---5--8--7s----4--7--5s---2--5--4s---1--4--|
Ab|--3--------------------------------------------------------------|
Eb|-----------------------------------------------------------------|

INTERLUDE:

eb|------5-------5-------5------5----------|
Bb|------5-------5-------5------5----------|
Gb|------6-------6-------6------6----------|
Db|------7-------7-------7------7----------|
Ab|------7-------7-------7------7----------|
Eb|--5~~-----5~~-----5~~----5~~------------|

VERSE 3:

eb|------------------------------------------|
Bb|------------------------------------------|
Gb|------------------------------------------|
Db|------------------------------------------| 4x
Ab|------------------------------------------|
Eb|--0-0-0-0-0-0-0-0-12p0-0-10p0-0-3p0-0-----|

"Oh my God; wish I could think..."

eb|------------------------------------------|
Bb|------------------------------------------|
Gb|------------------------------------------|
Db|------------------------------------------| 
Ab|------------------------------------------|
Eb|--0-0-0-0-0-0-0-0-12p0-0-10p0-0-3p0-0-----|

"I'm just a face..."

eb|------------------------------------------|
Bb|------------------------------------------|
Gb|------------------------------------------|
Db|------------------------------------------|
Ab|------------------------------------------|
Eb|--0-0-0-0-0-0-0-0-12p0-0-13p0-0-10p0-0----|

"It's never enough..."

BRIDGE:

eb|---------------------------------------------|
Bb|---------------------------------------------|
Gb|---------------------------------------------|
Db|---------------------------------------------|
Ab|---------------7---10------------------------|
Eb|--0--0--0--0-------------8------7------6-----|

"I'm just hanging with my head down..."

eb|------5------5------5------5------5------5------|
Bb|------5------5------5------5------5------5------|
Gb|------6------6------6------6------6------6------|
Db|------7------7------7------7------7------7------|
Ab|------7------7------7------7------7------7------|
Eb|--5~~----5~~----5~~----5~~----5~~----5~~--------|

CHORUS:

"I wanna take it back..."

eb|-------------------------6--6--6--6--6--6--6---|
Bb|-------------------------8--8--8--8--8--8--8---|
Gb|-----------5--3----------8--8--8--8--8--8--8---|
Db|-----2--5--------5---8---8--8--8--8--8--8--8---| x2
Ab|--3----------------------6--6--6--6--6--6--6---|
Eb|-----------------------------------------------|

"I wanna take it back to when I was so dumb and so innocent!"

eb|-----------------------------------------------------------------|
Bb|-----------------------------------------------------------------|
Gb|-----------5--3--------------------------------------------------|
Db|-----2--5--------5---8---5--8--7s----4--7--5s---2--5--4s---1--4--|
Ab|--3--------------------------------------------------------------|
Eb|-----------------------------------------------------------------|

OUTRO:

"Oh my God; wish I was dead..."

eb|------------------------------------------|
Bb|------------------------------------------|
Gb|------------------------------------------|
Db|------------------------------------------| x20
Ab|------------------------------------------|
Eb|--0-0-0-0-0-0-0-0-12p0-0-10p0-0-3p0-0-----|



| /  slide up
| \  slide down
| h  hammer-on
| p  pull-off
| ~  vibrato
| +  harmonic
| x  Mute note
Suggest correction
Give kudos to tab author, rate the tab!
1 2 3 4 5
comments
print report bad tab
1 comment total.
0 reply
david0518 132 Oct 31, 2016 02:23 PM

I saw them play this live on 10/30/2016 - Ben plays more open chords in it. The interlude may just be the open A chord. He also appeared to be playing just power chords for the chorus, too. I max revise this later to reflect it.

guest
You may want to rate the tab now too:
select rating
Wanna post a correction for this tab? Suggest correction