Oops, an error
Loading. Please wait.

Prisoner bass

196 views 1 this week
no commentswrite comment
1 2 3 4 5
2 more votes to show rating
add to favorites
×
Save as Personal and add changes to this tab that will be seen only by you. Learn more ›
×
You can save this tab as Personal to edit and correct it or add notes. All changes will be seen only by you. Learn more »
launch autoscroll
font size
0
reset
guitar tuner
edit
Autoscroll
slow
fast
+/-
esc
set tempo
stop
Author
Difficulty
About this tab version
The Pretty Reckless - Prisoner Bass tab for four string bass. This was tabbed by listening to the song, checking life performances and following the guitar tab. Feel free to improve on areas you think are wrong. Was this info helpful? Yes No
[Intro] - 0:18

G|------------------|------------------|------------------|---------------------|
D|------------------|------------------|------------------|---------------------|
A|---10-12-10-------|---10-12-10-------|---10-12-10-------|---10-12-10----------|
E|-5----------12-10-|-5----------12-10-|-5----------12-10-|-5----------12-10----|
   q. e  e  e  e  e   q. e  e  e  e  e   q. e  e  e  e  e   q. e  e  e  e  e
  
[Verse] - 0:30

G|---------|---------|-------------------|-------------------|
D|---------|---------|-------------------|-------------------|
A|---10-12-|---10-12-|----10-12-10-------|----10-12-10-------|
E|-5-------|-5-------|-5-----------12-10-|-5-----------12-10-|
   q. e  h   q. e  h   q. e  e  e  e  e    q. e  e  e  e  e

G|-------|-------|-------------------|-------------------|
D|-------|-------|-------------------|-------------------|
A|-5-3-5-|-5-3-5-|----10-12-10-------|----10-12-10-------|
E|-------|-------|-5-----------12-10-|-5-----------12-10-|
   q.e h  q.e h    q. e  e  e  e  e    q. e  e  e  e  e 


[Chorus] -  0:54

G|-----------------|-------------|-------------------|-------------------|
D|-----------------|-------------|-------------------|-------------------|
A|-----------------|-7-7-7-7-7-R-|----10-12-10-------|----10-12-10-------|
E|-1-1-1-1-1-1-1-1-|-------------|-5-----------12-10-|-5-----------12-10-|
   e e e e e e e e   e e e e e q.  q. e  e  e  e  e    q. e  e  e  e  e 

[Verse] - 1:05
G|---------|---------|-------------------|-------------------|
D|---------|---------|-------------------|-------------------|
A|---10-12-|---10-12-|----10-12-10-------|----10-12-10-------|
E|-5-------|-5-------|-5-----------12-10-|-5-----------12-10-|
   q. e  h   q. e  h   q. e  e  e  e  e    q. e  e  e  e  e

G|-------|-------|-------------------|-------------------|
D|-------|-------|-------------------|-------------------|
A|-5-3-5-|-5-3-5-|----10-12-10-------|----10-12-10-------|
E|-------|-------|-5-----------12-10-|-5-----------12-10-|
   q.e h  q.e h    q. e  e  e  e  e    q. e  e  e  e  e 

[Chorus] -  1:29

G|-----------------|-------------|-------------------|----------|
D|-----------------|-------------|-------------------|----------|
A|-----------------|-7-7-7-7-7-R-|----10-12-10-------|----10-12-|
E|-1-1-1-1-1-1-1-1-|-------------|-5-----------12-10-|-5--------|
   e e e e e e e e   e e e e e q.  q. e  e  e  e  e    q. e  h 

[Bridge] - 1:41

G|-----------------|----------------|-----------------|----------------|
D|-----------------|----------------|-----------------|----------------|
A|-----------------|----------------|-----------------|----------------|
E|-5-5-5-5-4-4-4-4-|-3-3-3-3-2-2-2-2|-5-5-5-5-4-4-4-4-|-3-3-3-3-2-2-2-2|

G|-----------------|----------------|-----------------|----------------|
D|-----------------|----------------|-----------------|----------------|
A|-----------------|----------------|-----------------|----------------|
E|-5-5-5-5-4-4-4-4-|-3-3-3-3-2-2-2-2|-5-5-5-5-4-4-4-4-|-3-3-3-3-2-2-2-2|

[Verse] - 2:05
G|---------|---------|-------------------|-------------------|
D|---------|---------|-------------------|-------------------|
A|---10-12-|---10-12-|----10-12-10-------|----10-12-10-------|
E|-5-------|-5-------|-5-----------12-10-|-5-----------12-10-|
   q. e  h   q. e  h   q. e  e  e  e  e    q. e  e  e  e  e

G|-------|-------|-------------------|-------------------|
D|-------|-------|-------------------|-------------------|
A|-5-3-5-|-5-3-5-|----10-12-10-------|----10-12-10-------|
E|-------|-------|-5-----------12-10-|-5-----------12-10-|
   q.e h  q.e h    q. e  e  e  e  e    q. e  e  e  e  e 

[Chorus] -  1:29

G|-----------------|------------------|-----------------|-------------|
D|-----------------|------------------|-----------------|-------------|
A|-----------------|-7-7-7-7-7-7-7-7-7|-----------------|-7-7-7-7-7-R-|
E|-1-1-1-1-1-1-1-1-|------------------|-1-1-1-1-1-1-1-1-|-------------|
   e e e e e e e e   e e e e e e e e e  q. e  e  e  e  e    q. e  h 
[Outro]

G|------------------|-------|------------------|-------|
D|------------------|-------|------------------|-------|
A|---10-12-10-------|-5-3-5-|---10-12-10-------|-5-3-5-|
E|-5----------12-10-|-------|-5----------12-10-|-------|
  q. e  e  e  e  e   q. e h  q. e  e  e  e  e   q. e h



************************************
| R   Rest
| q.  Dotted quarter note
| e   Eight note
| h   Half note

************************************
Suggest correction
Creating personal tab
Creating personal tab
You can edit any tab online and save it as your Personal.

You can edit, replace or remove any tab part or add personal notes – all changes will be seen only by you.

Personal tabs can be accessed anytime from any device, even offline.
Learn more »
Give kudos to tab author, rate the tab!
1 2 3 4 5
comments
print report bad tab
guest
You may want to rate the tab now too:
select rating
Wanna post a correction for this tab? Suggest correction