Oops, an error
Loading. Please wait.

Prisoner Tab

196 views 6 this week
1 commentread comment
1 2 3 4 5
3 more votes to show rating
add to favorites
launch autoscroll
font size
0
reset
how to read this tab
guitar tuner
Autoscroll
slow
fast
+/-
esc
set tempo
stop
Help us to improve Ultimate-Guitar.com Take our survey!
×
Author
Difficulty
Tuning
novice
C G C F A D
About this tab version
This might not be the correct tuning. Suggestions are welcome. Was this info helpful? Yes No
[Intro]

D|---------------------------------------------------------------------------|
A|---------------------------------------------------------------------------|
F|---------------------------------------------------------------------------|
C|-9---7-9---9---7-9---9---7-9---9---7-9-------------------------------------|
G|-9---7-9---9---7-9---9---7-9---9---7-9-------------------------------------|
C|-9---7-9---9---7-9---9---7-9---9---7-9-------------------------------------|


[Verse]

D|---------------------------------------------------------------------------|
A|---------------------------------------------------------------------------|
F|---------------------------------------------------------------------------|
C|-9---7-9---9---7-9---9---7-9---9---7-9-------------------------------------|
G|-9---7-9---9---7-9---9---7-9---9---7-9-------------------------------------|
C|-9---7-9---9---7-9---9---7-9---9---7-9-------------------------------------|

I'm a prisoner. 
Won't you set me free.

D|---------------------------------------------------------------------------|
A|---------------------------------------------------------------------------|
F|-9---7-9---9---7-9--7------------------------------------------------------|
C|-9---7-9---9---7-9--7--9---7-9---9---7-9-----------------------------------|
G|-7---5-7---7---5-7--5--9---7-9---9---7-9-----------------------------------|
C|-----------------------9---7-9---9---7-9-----------------------------------|

I'm a prisoner.
Won't you set me free.


[Chorus]

D|---------------------------------------------------------------------------|
A|---------------------------------------------------------------------------|
F|-----------------11-11-11-11-11--------------------------------------------|
C|-5-5-5-5-5-5-5-5-11-11-11-11-11--------------------------------------------|
G|-5-5-5-5-5-5-5-5-9--9--9--9--9---------------------------------------------|
C|-5-5-5-5-5-5-5-5-----------------------------------------------------------|

You can have my body,
but you can't have me.

D|---------------------------------------------------------------------------|
A|---------------------------------------------------------------------------|
F|---------------------------------------------------------------------------|
C|-9---7-9---9---7-9---------------------------------------------------------|
G|-9---7-9---9---7-9---------------------------------------------------------|
C|-9---7-9---9---7-9---------------------------------------------------------|

[Verse]

D|---------------------------------------------------------------------------|
A|---------------------------------------------------------------------------|
F|---------------------------------------------------------------------------|
C|-9---9---9---9---9---7-9---9---7-9-----------------------------------------|
G|-9---9---9---9---9---7-9---9---7-9-----------------------------------------|
C|-9---9---9---9---9---7-9---9---7-9-----------------------------------------|

I know I'm a criminal.
Don't you tell on me.

D|---------------------------------------------------------------------------|
A|---------------------------------------------------------------------------|
F|-9---7-9---9---7-9--7------------------------------------------------------|
C|-9---7-9---9---7-9--7--9---7-9---9---7-9-----------------------------------|
G|-7---5-7---7---5-7--5--9---7-9---9---7-9-----------------------------------|
C|-----------------------9---7-9---9---7-9-----------------------------------|

I know I'm a criminal
Don't you tell on me


[Chorus]

D|---------------------------------------------------------------------------|
A|---------------------------------------------------------------------------|
F|-----------------11-11-11-11-11--------------------------------------------|
C|-5-5-5-5-5-5-5-5-11-11-11-11-11--------------------------------------------|
G|-5-5-5-5-5-5-5-5-9--9--9--9--9---------------------------------------------|
C|-5-5-5-5-5-5-5-5-----------------------------------------------------------|

You can cross your fingers
But you can't cross me

D|---------------------------------------------------------------------------|
A|---------------------------------------------------------------------------|
F|---------------------------------------------------------------------------|
C|-9---7-9---9---7-9---------------------------------------------------------|
G|-9---7-9---9---7-9---------------------------------------------------------|
C|-9---7-9---9---7-9---------------------------------------------------------|

[Bridge]

D|---------------------------------------------------------------------------|
A|---------------------------------------------------------------------------|
F|---------------------------------9-7---------------------------------------|
C|---------------------------------------------------------------------------|  2x
G|---------------------------------------------------------------------------|
C|-9-9-9-9-8-8-8-8-8-7-7-7-7-6-6-6-------------------------------------------|

Oh, oh, oh, oh

D|---------------------------------------------------------------------------|
A|---------------------------------------------------------------------------|
F|---------------------------------------------------------------------------|
C|---------------------------------------------------------------------------| 2x
G|---------------------------------------------------------------------------|
C|-9-9-9-9-8-8-8-8-8-7-7-7-7-6-6-6-6-----------------------------------------|

Oh, oh, oh, oh

[Verse]

D|---------------------------------------------------------------------------|
A|---------------------------------------------------------------------------|
F|---------------------------------------------------------------------------|
C|-9---7-9---9---7-9---9---7-9---9---7-9-------------------------------------|
G|-9---7-9---9---7-9---9---7-9---9---7-9-------------------------------------|
C|-9---7-9---9---7-9---9---7-9---9---7-9-------------------------------------|

I'm a prisoner
Won't you set me free

D|---------------------------------------------------------------------------|
A|---------------------------------------------------------------------------|
F|-9---7-9---9---7-9--7------------------------------------------------------|
C|-9---7-9---9---7-9--7--9---7-9---9---7-9-----------------------------------|
G|-7---5-7---7---5-7--5--9---7-9---9---7-9-----------------------------------|
C|-----------------------9---7-9---9---7-9-----------------------------------|

I'm a prisoner
Don't you tell on me

[Outro]

D|---------------------------------------------------------------------------|
A|---------------------------------------------------------------------------|
F|-----------------11-11-11-11-11-11-11-11-----------------------------------|
C|-5-5-5-5-5-5-5-5-11-11-11-11-11-11-11-11-----------------------------------|
G|-5-5-5-5-5-5-5-5-9--9--9--9--9--9--9--9------------------------------------|
C|-5-5-5-5-5-5-5-5-----------------------------------------------------------|

You can have my money
Have me on my knees

D|---------------------------------------------------------------------------|
A|---------------------------------------------------------------------------|
F|-----------------11-11-11-11-11--------------------------------------------|
C|-5-5-5-5-5-5-5-5-11-11-11-11-11--------------------------------------------|
G|-5-5-5-5-5-5-5-5-9--9--9--9--9---------------------------------------------|
C|-5-5-5-5-5-5-5-5-----------------------------------------------------------|

You can have my body
But you can't have me

D|---------------------------------------------------------------------------|
A|---------------------------------------------------------------------------|
F|---------------------------------------------------------------------------|
C|-9---7-9---9---7-9---9---7-9---9---7-9-------------------------------------|
G|-9---7-9---9---7-9---9---7-9---9---7-9-------------------------------------|
C|-9---7-9---9---7-9---9---7-9---9---7-9-------------------------------------|

No, you can't have me
Suggest correction
Give kudos to tab author, rate the tab!
1 2 3 4 5
comments
print report bad tab
1 comment total.
0 reply
david0518 122 Oct 28, 2016 10:08 PM

why do you have this in Drop C tuning? I think it is easier to play in standard (and it is recorded that way, too).

guest
You may want to rate the tab now too:
select rating
Wanna post a correction for this tab? Suggest correction