Oops, an error
Loading. Please wait.

Sweet Things Acoustic Tab

4,388 views 33 this week
1 commentread comment
1 2 3 4 5
excellent!
x 5
add to favorites
launch autoscroll
font size
0
reset
how to read this tab
guitar tuner
Tab Pro tools
  • play this tab
  • loop segment
  • change instrument
  • show fretboard
  • metronome
×
Best way to learn
"Sweet Things Acoustic"
Autoscroll
slow
fast
+/-
esc
set tempo
stop
Contributor
Difficulty
Tuning
intermediate
D# G# C# F# A# D#
-------------------------------------------------------------------------------
                             Sweet things ( acoustic)
-------------------------------------------------------------------------------


Tuning:half step down
  Intro                                                       1.
e|-------------------|----------------------------------|--------------------------||
B|-------------------|----------------------------------|--------------------------||
G|-------------------|----------------------------------|------------------------.-||
D|-0-h-2---2--2---2--|-0-h-2---2--2---2---0-h-2--2--2---|--2---0-h-2--2--3---3---.-||
A|-0-h-2---2--2---2--|-0-h-2---2--2---2---0-h-2--2--2---|--2---0-h-2--2--2---2-----||
E|-0-------0--0---0--|-0-------0--0---0---0------0--0---|--0---0-h-2--0--0---0-----||
 2.
e|-------------||------------|
B|-------------||------------|
G|------------.||------------|
D|--2---------.||------------|
A|--0--5--3----||---5--4--3--|
E|-----3--1----||---3--2--1--|
 Chorus                                                @
e|--------------------|--------------------------------|---3---3--3-3-3---2---2--2-2-2----|
B|--------4---4-4-----|--4--4---4---4--4----4---4--4---|---4---4--4-4-4---4---4--4-4-4----|
G|--------0---0-0---.-|--4--4---4---4--4----4---4--4---|---4---4--4-4-4---4---4--4-4-4--.-|
D|--------2---2-2---.-|--4--4---4---4--4----4---4--4---|---4---4--4-4-4---4---4--4-4-4--.-|
A|--2--2--------------|--2--2---2---2--2----2---2--2---|---2---2--2-2-2---2---2--2-2-2----|
E|--0--0--------------|--------------------------------|----------------------------------|


CHORDS
   C      Dsus       G        Em       B7       B7       C        Dsus
e|-0--------0--------3--------0--------2--------2--------0--------0-------------------|
B|-1--------3--------0--------0--------0--------0--------1--------3-------------------|
G|-0--------0--------0--------0--------2--------2--------0--------0-------------------|
D|-2--------4--------0--------2--------1--------1--------2--------4-------------------|
A|-3--------5--------2--------2--------2--------2--------3--------5-------------------|
E|-------------------3--------0-------------------------------------------------------|

Back to chorus till @

e|---------------|---------------|
B|---------------|---------------|
G|---------------|---------------|
D|---------------|---------------|
A|--2--0---------|---------------|
E|--------3--2---|---------------|

 BACK TO  VERSE

BRIDGE

e|---------------------------------------------------------------------------|
B|---4--4-4---4-4--4-4--4-4--4----------------4--4-4--4-4--4-4--4-4--4-4-----|
G|---4--4-4---4-4--4-4--4-4--4---5-5--5-5--5--4--4-4--4-4--4-4--4-4--4-4-----|
D|---4--4-4---4-4--4-4--4-4--4---5-5--5-5--5--4--4-4--4-4--4-4--4-4--4-4-----|
A|---2--2-2---2-2--2-2--2-2--2---3-3--3-3--3--2--2-2--2-2--2-2--2-2--2-2-----|
E|---------------------------------------------------------------------------|
  1.                  2. 
e|------------------|---------------------------------------|
B|------------------|---4-4--4-4--4-4--4-4--4---------------|
G|---7--7--7-7-7-7--|---4-4--4-4--4-4--4-4--4---------------|
D|---7--7--7-7-7-7--|---4-4--4-4--4-4--4-4--4---------------|
A|---5--5--5-5-5-5--|---2-2--2-2--2-2--2-2--2---------------|
E|------------------|---------------------------------------|

INTRO ,CHORUS,INTRO CHORUS

e|---------------------------------| 
B|------------------------------4--|
G|------------------------------0--|
D|------------------------------2--|
A|---2--0-----------------------2--|
E|---------3--2-----------------0--|
************************************
comments
print report bad tab
1 comment total.
0 reply
Spiffster99 wrote on June 18 2015, 08:18 pm

didn't like this contribution

I want to post or [tab]
guest
You may want to rate the tab now too:
select rating
Please do not post tabs as comments. Select "correction" instead!