Oops, an error
Loading. Please wait.

Take Me Down Tab

1,912 views 165 this week
3 commentsread comments
1 2 3 4 5
x 8
add to favorites
launch autoscroll
font size
0
reset
how to read this tab
guitar tuner
Autoscroll
slow
fast
+/-
esc
set tempo
stop
Help us to improve Ultimate-Guitar.com Take our survey!
×
Author
Difficulty
novice
About this tab version
I have not seen another complete tab for this song yet. Suggestions and tweaks welcome. Was this info helpful? Yes No
[Intro]

(E / G / D / E)

[slight riff of B5 to D5 before verse begins]
 
e|------------------------------------------------------------------------------------------|
B|------------------------------------------------------------------------------------------|
G|-7/9-9----9-9----9----10/12-12-----12-12-----12--6/7-7----7-7----7--7/9-9----9-9----4--7--|
D|-7/9-9----9-9----9----10/12-12-----12-12-----12--6/7-7----7-7----7--7/9-9----9-9----4--7--|
A|-5/7-7--0h7-7--0h7-----8/10-10---0h10-10---0h10--4/5-5--0h5-5--0h5--5/7-7--0h7-7----2--5--|
E|------------------------------------------------------------------------------------------|


[Verse]

*light palm muting through verses*

E, G, D, E

"Been waiting at these crossroads..."

e|------------------------------------------------------------------------------------|
B|------------------------------------------------------------------------------------|
G|-7/9-9----9-9----9----10/12-12-----12-12-----12--6/7-7----7-7----7--7/9-9----9-9--9-|
D|-7/9-9----9-9----9----10/12-12-----12-12-----12--6/7-7----7-7----7--7/9-9----9-9--9-|
A|-5/7-7--0h7-7--0h7-----8/10-10---0h10-10---0h10--4/5-5--0h5-5--0h5--5/7-7--0h7-7--7-|
E|------------------------------------------------------------------------------------|

"Here we go, oh, oh"

e|-------------------------------|
B|-------------------------------|
G|---9-9-9-9--7-7-7-7--9-9-9-9---|
D|---9-9-9-9--7-7-7-7--9-9-9-9---|
A|---7-7-7-7--5-5-5-5--7-7-7-7---|
E|-------------------------------|

E, G, D, E

"Momma begged me please..."

e|------------------------------------------------------------------------------------|
B|------------------------------------------------------------------------------------|
G|-7/9-9----9-9----9----10/12-12-----12-12-----12--6/7-7----7-7----7--7/9-9----9-9--9-|
D|-7/9-9----9-9----9----10/12-12-----12-12-----12--6/7-7----7-7----7--7/9-9----9-9--9-|
A|-5/7-7--0h7-7--0h7-----8/10-10---0h10-10---0h10--4/5-5--0h5-5--0h5--5/7-7--0h7-7--7-|
E|------------------------------------------------------------------------------------|

"Here I go, oh, oh"

e|---------------------------------------|
B|---------------------------------------|
G|---12 12-12-12--11-11-11-11--9-9-9-9---|
D|---12-12-12-12--11-11-11-11--9-9-9-9---|
A|---10-10-10-10--9--9--9--9---7-7-7-7---|
E|---------------------------------------|

\\\\\slide down to low E\


[Chorus]

E, D, A, E

"Take me down..."

e|----------------------|
B|----------------------|
G|-1----7----6----9-----|
D|-2----7----7----9-----|
A|-2----5----7----7-----|
E|-0----x----5----x-----|


e|------------------------------------------------------------------------------------|
B|------------------------------------------------------------------------------------|
G|-7/9-9----9-9----9----10/12-12-----12-12-----12--6/7-7----7-7----7--7/9-9----9-9--9-|
D|-7/9-9----9-9----9----10/12-12-----12-12-----12--6/7-7----7-7----7--7/9-9----9-9--9-|
A|-5/7-7--0h7-7--0h7-----8/10-10---0h10-10---0h10--4/5-5--0h5-5--0h5--5/7-7--0h7-7--7-|
E|------------------------------------------------------------------------------------|


[Verse 2]

"Standing at the crossroads..."

e|------------------------------------------------------------------------------------|
B|------------------------------------------------------------------------------------|
G|-7/9-9----9-9----9----10/12-12-----12-12-----12--6/7-7----7-7----7--7/9-9----9-9--9-|
D|-7/9-9----9-9----9----10/12-12-----12-12-----12--6/7-7----7-7----7--7/9-9----9-9--9-|
A|-5/7-7--0h7-7--0h7-----8/10-10---0h10-10---0h10--4/5-5--0h5-5--0h5--5/7-7--0h7-7--7-|
E|------------------------------------------------------------------------------------|

"Don't care what happens when I die"
"As long as I'm alive"
"All I wanna do is..."
"rock, rock, rock!"

e|---------------------------|
B|---------------------------|
G|--9-----12----6-----9------|
D|--9-----12----7-----9------|
A|--7-----10----7-----7------|
E|--------------5------------|


[Chorus]

E, D, A, E

"Take me down..."

e|----------------------|
B|----------------------|
G|-1----7----6----9-----|
D|-2----7----7----9-----|
A|-2----5----7----7-----|
E|-0----x----5----x-----|


[Solo]

e|-------------------------------------------------------|
B|------------8------------10b12p8--10~~--10b12p8--10~~~-|
G|------5-7/9---9--7--9~~~-------------------------------|
D|--5h7--------------------------------------------------|
A|-------------------------------------------------------|
E|-------------------------------------------------------|

e|-----------------------------------------------------------|
B|--10b12p8---------8----------10b12p8--10~~--10b12p8--10~~~-|
G|----------9-----7---9--7-9~~~------------------------------|
D|------------7h9--------------------------------------------|
A|-----------------------------------------------------------|
E|-----------------------------------------------------------|

e|-------------------|
B|--10b12p8----------|
G|----------9-----7--|
D|------------7h9----|
A|-------------------|
E|-------------------|


[Bridge]

E, D, A, E

*slight palm mute*

"Sign with the devil..."

e|-------------------------|
B|-------------------------|
G|--9----7----6----9-------|
D|--9----7----7----9-------| 
A|--7----5----7----7-------|
E|------------5------------|(x4)


[Chorus]

E, D, A, E

"Take me down..."

e|----------------------|
B|----------------------|
G|-1----7----6----9-----|
D|-2----7----7----9-----|
A|-2----5----7----7-----|
E|-0----x----5----x-----|


************************************


| /  slide up
| \  slide down
| h  hammer-on
| p  pull-off
| ~  vibrato
| +  harmonic
| x  Mute note

************************************
Suggest correction
comments
print report bad tab
3 comments total.
0 reply
shernae100 149 Sep 22, 2016 08:33 PM

This is fantastic.

0 reply
david0518 122 Sep 29, 2016 03:33 PM

slight revisions made on 9/29 after seeing the official video

0 reply
mcsg4444 10 Nov 24, 2016 11:18 PM

Plsese someone meke bass tab!

guest
You may want to rate the tab now too:
select rating
Wanna post a correction for this tab? Suggest correction