Oops, an error
Loading. Please wait.

Who You Selling For tab

649 views 15 this week
no commentswrite comment
1 2 3 4 5
x 3
add to favorites
×
Save as Personal and add changes to this tab that will be seen only by you. Learn more ›
×
You can save this tab as Personal to edit and correct it or add notes. All changes will be seen only by you. Learn more »
launch autoscroll
font size
0
reset
how to read this tab
guitar tuner
edit
Autoscroll
slow
fast
+/-
esc
set tempo
stop
Author
Difficulty
About this tab version
Have not seen full song tabbed out yet. Suggestions or revisions on the picking pattern in the chorus welcome. Was this info helpful? Yes No
----------------------------------------------------------------- 
WHO YOU SELLING FOR - The Pretty Reckless 
----------------------------------------------------------------- 
Tabbed by: david0518 
Tuning: Standard (EADGBe)

*the song is primarily D, G, and Em chords if you want to strum it*

D

e|--2--|
B|--3--|
G|--2--|
D|--0--|
A|--0--|
E|-----|

G

e|--3--|
B|--3--|
G|--0--|
D|--0--|
A|--2--|
E|--3--|

Em

e|--0--|
B|--0--|
G|--0--|
D|--2--|
A|--2--|
E|--0--|

---------

[Intro]

e|---------------|
B|---------------|
G|---------------|
D|----0--2--4----|
A|--0------------|
E|---------------|

/pause/

*Riff A*

D / G

e|--2----------------3--3--0-----|
B|--3----s7--7--5----3--3--0-----|
G|--2----------------------------|
D|--0----------------------------| x3
A|-------------------------------|
E|-------------------------------|

e|--2----------------3---|
B|--3----s7--7--5----3---|
G|--2--------------------|
D|--0--------------------|
A|-----------------------|
E|-----------------------|

[Verse]

D / G / D / G

"In the middle of a dream..."

e|--2----------------3--3--0-----|
B|--3----s7--7--5----3--3--0-----|
G|--2----------------------------|
D|--0----------------------------| x3
A|-------------------------------|
E|-------------------------------|

"... sight..."

e|--2---2--2-----0---0--0---|
B|--3---3--3----s7---7--7---|
G|--2---2--2----s7---7--7---|
D|--0---0--0----------------| 
A|--------------------------|
E|--------------------------|

"Who you selling for tonight?..."

Em / G / D

e|------------------------------------|
B|----------0-------------------------|
G|--------0---0------------0--0--0----|
D|------2-------2--0-------0--0--0----|
A|----2-----------------2--2--2--2----|
E|--0-----------------3----3--3--3----|

e|--2----------------3--3--0-----|
B|--3----s7--7--5----3--3--0-----|
G|--2----------------------------|
D|--0----------------------------|
A|-------------------------------|
E|-------------------------------|

/back to Riff A verse/

"Pack my bags..."

e|--2----------------3--3--0-----|
B|--3----s7--7--5----3--3--0-----|
G|--2----------------------------|
D|--0----------------------------| x3
A|-------------------------------|
E|-------------------------------|

"... high..."

e|--2---2--2-----0---0--0---|
B|--3---3--3----s7---7--7---|
G|--2---2--2----s7---7--7---|
D|--0---0--0----------------| 
A|--------------------------|
E|--------------------------|

[Chorus]

Em / G / D

"Who you selling for tonight?"

    Em                G

e|------------------------------------|
B|----------0-------------------------|
G|--------0---0------------0--0--0----|
D|------2-------2--0-------0--0--0----|
A|----2-----------------2--2--2--2----|
E|--0-----------------3----3--3--3----|

    D

e|--------2--2---------2--2-----|
B|--------3--3---------3--3-----|
G|--------2--2---------2--2-----|
D|--0--0--0--0---0--0--0--0-----|
A|--0------------0--------------|
E|--0------------0--------------|

    Em                G

e|------------------------------------|
B|----------0-------------------------|
G|--------0---0------------0--0--0----|
D|------2-------2--0-------0--0--0----|
A|----2-----------------2--2--2--2----|
E|--0-----------------3----3--3--3----|

    D

e|-----2--2--2------2--2--2-----|
B|-----3--3--3------3--3--3-----|
G|-----2--2--2------2--2--2-----|
D|-----0--0--0------0--0--0-----|
A|--0------------0--------------|
E|--0------------0--------------|

    Em                G

e|------------------------------------|
B|----------0-------------------------|
G|--------0---0------------0--0--0----|
D|------2-------2--0-------0--0--0----|
A|----2-----------------2--2--2--2----|
E|--0-----------------3----3--3--3----|

    D

e|-----2--2--2------2--2--2-----|
B|-----3--3--3------3--3--3-----|
G|-----2--2--2------2--2--2-----|
D|-----0--0--0------0--0--0-----|
A|--0------------0--------------|
E|--0------------0--------------|

    Em                G

e|-------------------------3----------|
B|----------0--------------3----------|
G|--------0---0------------0----------|
D|------2-------2--0-------0----------|
A|----2--------------------2----------|
E|--0----------------------3----------|

[Bridge]

"Tonight, it's alright..."

D / G / D / G

e|---2-----3-----2-----3------|
B|---3-----3-----3-----3------|
G|---2-----0-----2-----0------|
D|---0-----0-----0-----0------| x4
A|---0-----2-----0-----2------|
E|---0-----3-----0-----3------|

[Chorus]

"Who you selling for tonight?"

    Em                G

e|------------------------------------|
B|----------0-------------------------|
G|--------0---0------------0--0--0----|
D|------2-------2--0-------0--0--0----|
A|----2-----------------2--2--2--2----|
E|--0-----------------3----3--3--3----|

    D

e|-----2--2--2------2--2--2-----|
B|-----3--3--3------3--3--3-----|
G|-----2--2--2------2--2--2-----|
D|-----0--0--0------0--0--0-----|
A|--0------------0--------------|
E|--0------------0--------------|

    Em                G

e|-------------------------3----------|
B|----------0--------------3----------|
G|--------0---0------------0----------|
D|------2-------2--0-------0----------|
A|----2--------------------2----------|
E|--0----------------------3----------|

/return to Riff A/

"tonight..."

[Outro]

"In the middle of dream..."

e|--2----------------3--3--0-----|
B|--3----s7--7--5----3--3--0-----|
G|--2----------------------------|
D|--0----------------------------| x4
A|-------------------------------|
E|-------------------------------|

"... right..."

e|--2---2------0---0--0---|
B|--3---3-----s7---7--7---|
G|--2---2-----s7---7--7---|
D|--0---0-----------------| 
A|------------------------|
E|------------------------|



************************************

| s - Slide

************************************
Suggest correction
Creating personal tab
Creating personal tab
You can edit any tab online and save it as your Personal.

You can edit, replace or remove any tab part or add personal notes – all changes will be seen only by you.

Personal tabs can be accessed anytime from any device, even offline.
Learn more »
Give kudos to tab author, rate the tab!
1 2 3 4 5
comments
print report bad tab
guest
You may want to rate the tab now too:
select rating
Wanna post a correction for this tab? Suggest correction