Oops, an error
Loading. Please wait.

Zombie Tab

version 1
version 1

Acoustic

Interactive

29,220 views 36 this week
no commentswrite comment
1 2 3 4 5
x 7
add to favorites
launch autoscroll
font size
0
reset
how to read this tab
guitar tuner
Autoscroll
slow
fast
+/-
esc
set tempo
stop
Help us to improve Ultimate-Guitar.com Take our survey!
×
My first tab! :)
Intro:

E-----2-----------4----------------6-------------------6-------------------4|
B-----0-----0-----0-----0---------4----4--6--7--------4------4--6--7------4-|
G-----3---3-------3---3--------------------------------------------------4--|
D-----4-----------4---------------------------------------------------------|
A---------------------------------------------------------------------------|
E---------------------------------------------------------------------------|

Chorus:

E---2-----------------------------4---------------------------------------|
B---0----------0------------------0--------------0------------------------|
G---3------3----------------------3---------3-----------------------------|
D---4-----------------------------4---------------------------------------|
A-------------------------------------------------------------------------|
E-------------------------------------------------------------------------|   
    I'm not listening to you     I am wandering right through 

E-------6---------------------------6-------------------------------------|
B------4-----4---6---7-------------4------4---6---7-----------------------|
G-------------------------------------------------------------------------|
D-------------------------------------------------------------------------|
A-------------------------------------------------------------------------|
E-------------------------------------------------------------------------| 

     existence 
E---2-----------------------------4---------------------------------------|
B---0----------0------------------0--------------0------------------------|
G---3------3----------------------3---------3-----------------------------|
D---4-----------------------------4---------------------------------------|
A-------------------------------------------------------------------------|
E-------------------------------------------------------------------------|   
With no purpose and no drive       'cause in the end we're all

E-------6---------------------------6-------------------------------------|
B------4-----4---6---7-------------4------4---6---7-----------------------|
G-------------------------------------------------------------------------|
D-------------------------------------------------------------------------|
A-------------------------------------------------------------------------|
E-------------------------------------------------------------------------| 

      alive                   ,    alive

E---------------------------------------------------|
B---------------------------------------------------|
G--------00000--------------------------------------|
D--------22222--------------------------------------|
A--------22222--------------------------------------|
E--------00000--------0-----2-----3-----------------|

                Two thousand years I've been awake

E---------------------------------------------------|
B---------------------------------------------------|
G--------00000--------------------------------------|
D--------22222--------------------------------------|
A--------22222--------------------------------------|
E--------00000--------0-----2-----3-----------------|

               Waiting for the day to shake



em
To all of you who've wronged me
c
I am. I am a zombie
am                          B
Again, again you want me to fall on my head
em
I am, I am, I am a zombie
c
How low, how low, how low will you push me
am                          B
To go to go to go, before I lie, lie down dead

E---2-----------------------------4---------------------------------------|
B---0----------0------------------0--------------0------------------------|
G---3------3----------------------3---------3-----------------------------|
D---4-----------------------------4---------------------------------------|
A-------------------------------------------------------------------------|
E-------------------------------------------------------------------------|   
Blow the smoke right off the tube  Kiss my gentle burning bruise


E-------6---------------------------6-------------------------------------|
B------4-----4---6---7-------------4------4---6---7-----------------------|
G-------------------------------------------------------------------------|
D-------------------------------------------------------------------------|
A-------------------------------------------------------------------------|
E-------------------------------------------------------------------------|

I'm lost in time

em
To all the people left behind

am
you are walking dumb and blind, blind

E---------------------------------------------------|
B---------------------------------------------------|
G--------00000--------------------------------------|
D--------22222--------------------------------------|
A--------22222--------------------------------------|
E--------00000--------0-----2-----3-----------------|

And two thousand years I've been awake

E---------------------------------------------------|
B---------------------------------------------------|
G--------00000--------------------------------------|
D--------22222--------------------------------------|
A--------22222--------------------------------------|
E--------00000--------0-----2-----3-----------------|

Waiting for the day to shake

em
Dear all of you who've wronged me
c
I am, I am a zombie
am                          b
Again, again you want me to fall on my head

em
I am, I am, I am a zombie
c
How low, how low, how low will you push me
am                          B
To go to go to go, before I lie, lie down dead

Oh dead, Oh dead, Oh dead (c am em em x4)

(repeat chords) 
To all of you who've wronged me

I am, I am a zombie

Again, again you want me to fall on my head


I am I am I am a zombie

How low, how low, how low will you push me
                                        em
To go, to go, to go, before I lie down dead
Suggest correction
comments
print report bad tab
guest
You may want to rate the tab now too:
select rating
Wanna post a correction for this tab? Suggest correction